Song name
# A B C D E F G H I J K L M N O P Q R S T U V W X Y Z

Solar Stone - Seven Cities tab

Artist: Solar Stone (http://www.solarstone.org.uk/)
Genre: Chillout

This is my first tab, so go easy
Its a great song
Play with chilled attitude..

Main Riff
e|----------------------------------------------|
B|---------3----5---6-5--------6---5------------|
G|--0----0----0---------2----2---------0--------|
D|----------------------------------------------|
A|----------------------------------------------|
E|----------------------------------------------|

e|----------------------------------------------|
B|---------3----5--5b6-5--------6---5-----------|
G|--0----0----0----------2----2---------0-------|
D|----------------------------------------------|
A|----------------------------------------------|
E|----------------------------------------------|

e|-------------------------------------------------|
B|----1-3-------3----5---6-5---1-3-------6---5-----|
G|--0-----0---0----0---------2-----2---2---------0-|
D|-------------------------------------------------|
A|-------------------------------------------------|
E|-------------------------------------------------|

Then repeat until happy..

I couldn't find this anywhere but i think i've pretty much got it.
If you have questions or suggestions, don't hesitate to 
e-mail me at: Crazy_tiger_sd@hotmail.com
Seth :)
Tap to rate this tab
 
# A B C D E F G H I J K L M N O P Q R S T U V W X Y Z