Song name
# A B C D E F G H I J K L M N O P Q R S T U V W X Y Z

Solarplexus - You Dont Know My Name tab

Artist - Solarplexus
Song - You don't know my name
Album - Unknown
Tabbed by: Brian & Blair   e-mail address - jefels1@hotmail.com

Intro

e ----------------------------------------|
b ----------------------------------------|
g ----------------------------------------|
a 11-11-11-11---9-9-9-9--7-7--9---9-9-9---|
d 11-11-11-11---9-9-9-9--7-7--9---9-9-9---|      REPEAT 3x
e 9--9- 9--9----7-7-7-7--5-5--7---7-7-7---|

e -----------------------------------------------------|
b -----------------------------------------------------|
g -----------------------------------------------------|
a 11-11-11-11---9-9-9-9--7-7--9------------------------|
d 11-11-11-11---9-9-9-9--7-7--9-(10x)------------------|  PLAY 1x
e 9--9--9--9----7-7-7-7--5-5--7------------------------|


Verse

e -------------------------------|
b -------------------------------|
g -9-9---------------------------|
a -9-9--9-9--11-11--9-9-9-9-9----|
d -7-7--9-9--11-11--9-9-9-9-9----|   PLAY 3x
e ------7-7--9--9---7-7-7-7-7----|

e -----------------------------|
b -----------------------------|
g -9-9-------------------------|
a -9-9--9-9---11------9--------|
d -7-7--9-9---11-(8x)-9-(8x)---|   PLAY 1x
e ------7-7---9-------7--------|


Outro

e ----------------------------------------|
b ----------------------------------------|
g ----------------------------------------|
a 11-11-11-11---9-9-9-9--7-7--9---9-9-9---|
d 11-11-11-11---9-9-9-9--7-7--9---9-9-9---|      PLay 3 or 4 times
e 9--9- 9--9----7-7-7-7--5-5--7---7-7-7---|
Tap to rate this tab
# A B C D E F G H I J K L M N O P Q R S T U V W X Y Z