Song name
# A B C D E F G H I J K L M N O P Q R S T U V W X Y Z

Sold As Great - Patience tab

Sold As Great - Patience
All rights reserved

Tuning (Drop D!): D, A, D, G, B, E

INTRO (2x)
E|----------------------------------------------------|
B|----------------------------------------------------|
G|-----11------------7------------7-------------------|
D|----9---9---------5--5---------0--0-----------------|
A|----------------------------------------------------|
D|-9-------9-----5------5-----0------0----------------|

Vers (4x)
E|----------------------------------------------------|
B|----------------------------------------------------|
G|------11-----------7-----------7--------------------|
D|----9-----9-----5-----5-----0-----0-----------------|
A|----------------------------------------------------|
D|-9-----------5-----------0--------------------------|

Bridge (2x)
E|----------------------------------------------------|
B|----------------------------------------------------|
G|------------------------(7)-------------------------|
D|------------------------(0)-------------------------|
A|------------------------(0)-------------------------|
D|-4-----------5-----------0--------------------------|

Chorus / Riff (4x)
E|----------------------------------------------------------------------------------------|
B|----------------------------------------------------------------------------------------|
G|-11---11---11-11-11-7----7--7----7--7--7--7----7--7----7--7--7--9----9--9--9----7--7----|
D|-9----9----9--9--9--5----5--5----5--5--5--0----0--0----0--0--0--0----0--0--0----0--0----|
A|-9----9----9--9--9--5----5--5----5--5--5--0----0--0----0--0--0--------------------------|
D|-9----9----9--9--9--5----5--5----5--5--5--0----0--0----0--0--0--------------------------|
Tap to rate this tab
# A B C D E F G H I J K L M N O P Q R S T U V W X Y Z