Song name
# A B C D E F G H I J K L M N O P Q R S T U V W X Y Z

Sold As Great - Is It Worth The Time tab

Is It Worth The Time? - Sold As Great
All rights reserved

INTRO
|-----3-3-----------3-3-----------3-3-----------3-3--------|
|-----3-3-----------3-3-----------3-3-----------3-3--------|
|----------------------------------------------------------|
|----------------0-------0-0-0---------------0-------0-0-0-|
|--2-------2-2-2---------------2-------2-2-2---------------|
|--0-------0-0-0-2-------2-2-2-3-------3-3-3-2-------2-2-2-|

|----3-3-----------3-3-----------3-3--------7-7--7--5-5-|
|----3-3-----------3-3-----------3-3--------0-0--0--0-0-|
|-------------------------------------------------------|
|---------------0-------0-0-0---------------------------|
|-2-------2-2-2---------------2-------2-2-2-------------|
|-0-------0-0-0-2-------2-2-2-3-------3-3-3-------------|

RIFF (2x)
|------3---3---3------3---3---3------3---3---3--7-7--7--5-5-|
|------3---3---3------3---3---3------3---3---3--0-0--0--0-0-|
|-----------------------------------------------------------|
|----------------2--2-------2-------------------------------|
|-2--2-------2---3--3-------3---2--2-------2----------------|
|-0--0-------0------------------3--3-------3----------------|

VERS (4x)
|------3---3---3------3---3---3------3---3---3--2---2-2--3-3-|
|------3---3---3------3---3---3------3---3---3--3---3-3--3-3-|
|-----------------------------------------------2---2-2--2-2-|
|----------------2--2-------2--------------------------------|
|-2--2-------2---3--3-------3---2--2-------2-----------------|
|-0--0-------0------------------3--3-------3-----------------|

CHORUS (2x)
|-3--3-3--3-3-3-2-2-2-2--3-3--3--3-3--3-3-3-3--3-3--3-3-3-|
|-3--3-3--3-3-3-3-3-3-3--3-3--3--3-3--3-3-3-3--3-3--3-3-3-|
|-0--0-0--0-0-0-2-2-2-2--2-2------------------------------|
|---------------0-0-0-0--0-0----------------2--2-2--2-2-2-|
|-2--2-2--2-2-2---------------2--2-2--2-2-2-3--3-3--3-3-3-|
|-3--3-3--3-3-3---------------0--0-0--0-0-0---------------|
Tap to rate this tab
# A B C D E F G H I J K L M N O P Q R S T U V W X Y Z