Song name
# A B C D E F G H I J K L M N O P Q R S T U V W X Y Z

Soldiers Heart - African Fire tab

BAND WEDSITE: https://www.facebook.com/soldiersheartmusic

This is my first tab, so correct me if you see any mistakes. I'm not too sure about the 
"Never wanna be around the dance floor..." part but I'm pretty sure that the rest is correct.

INTRO
(fingerpick)

e|--9---7---2--|
B|--9---7---2--|
G|--9---6---1--|
D|--7---7---2--|
A|--X---X---X--|
E|--X---X---X--|

Globally you slide the words...
(fingerpick)

e|--9---7---2--|
B|--9---7---2--|
G|--9---6---1--|
D|--7---7---2--| 2X
A|--X---X---X--|
E|--X---X---X--|

Never wanna be around the dance floor...

e|--0--0--|
B|--3--5--|
G|--4--6--|
D|--4--6--| 8X
A|--X--X--|
E|--X--X--|

He goes all the way...

e|--5---9---4---2--|
B|--5---10--5---2--|
G|--6---9---6---1--|
D|--7---11--6---2--| 4X
A|--7---9---4---X--|
E|--5---X---X---X--|


BRIDGE
(fingerpick)

e|--9---7---2--|
B|--9---7---2--|
G|--9---6---1--|
D|--7---7---2--|
A|--X---X---X--|
E|--X---X---X--|

Globally you slide the words...
(fingerpick)

e|--9---7---2--|
B|--9---7---2--|
G|--9---6---1--|
D|--7---7---2--| 2X
A|--X---X---X--|
E|--X---X---X--|

Flowing down at streets...

e|--0--0--|
B|--3--5--|
G|--4--6--|
D|--4--6--| 6X
A|--X--X--|
E|--X--X--|

He goes all the way

e|--5---9---4---2--|
B|--5---10--5---2--|
G|--6---9---6---1--|
D|--7---11--6---2--| 2X
A|--7---9---4---X--|
E|--5---X---X---X--|

SOLO

e|----------------------------------------------------------|
B|--7-----------7-----------------7----------9--------------|
G|-----6--9--6----6--9--6--9--6----6--9--6-----9--6--9--6---|
D|----------------------------------------------------------| 2X
A|----------------------------------------------------------|
E|----------------------------------------------------------|

e|------------------7-------|
B|---------------9-----9----|
G|--9--6--9--6-----------6--|
D|--------------------------| 4X
A|--------------------------|
E|--------------------------|

e|----------------------------------------------------------|
B|--7-----------7-----------------7----------9--------------|
G|-----6--9--6----6--9--6--9--6----6--9--6-----9--6--9--6---|
D|----------------------------------------------------------|
A|----------------------------------------------------------|
E|----------------------------------------------------------|

e|--------------------------------------------------------9-|
B|--7-----------7-----------------7----------9--------------|
G|-----6--9--6----6--9--6--9--6----6--9--6-----9--6--9------|
D|----------------------------------------------------------|
A|----------------------------------------------------------|
E|----------------------------------------------------------|

He goes all the way...

e|--5---9---4---2--|
B|--5---10--5---2--|
G|--6---9---6---1--|
D|--7---11--6---2--| 4X
A|--7---9---4---X--|
E|--5---X---X---X--|
Tap to rate this tab
# A B C D E F G H I J K L M N O P Q R S T U V W X Y Z