Song name
# A B C D E F G H I J K L M N O P Q R S T U V W X Y Z

Soldiers Of Jah Army - Rasta Courage tab

Tabbed by: Bruno Camargo

/ = Slide up
p = Pull off
\ = Slide down
lr = Let ring
h = Hammer on

e |--------------------------------------------------------------------------|
B |-11/13--13p11-11-11-10-------------------------------8/10--10-8----8------|
G |------------------------10-10-10-10-12p10-10-12p10-10-----------10---10-7-|
D |--------------------------------------------------------------------------|
A |--------------------------------------------------------------------------|
E |--------------------------------------------------------------------------|

e |--------------------------------------------------------------------------------------|
B |-11/13--13p11-11-11-10--10----------------10----10--10--------------------------------|
G |---------------------------12-12-12-12-12----12--------12\10--10-10\7----5h7-10h12-10-|
D |----------------------------------------------------------------------12--------------|
A |--------------------------------------------------------------------------------------|
E |--------------------------------------------------------------------------------------|

e |------------------------------------|
B |------------------------------------|
G |-5-5-5-5/7-10-10/12-10-5h7-10h12-10-|
D |------------------------------------|
A |------------------------------------|
E |------------------------------------|

e |----------------------------------------------------------|
B |----------------------------------------------------------|
G |-5-5-5-7h10-7-10/12-10-10p7-5-10--10-10-10-10-10-10-10-10-|
D |----------------------------------------------------------|
A |----------------------------------------------------------|
E |----------------------------------------------------------|
Tap to rate this tab
 
# A B C D E F G H I J K L M N O P Q R S T U V W X Y Z