Song name
# A B C D E F G H I J K L M N O P Q R S T U V W X Y Z

Soldiers Of Jah Army - Not Done Yet tab

Standar Tuning

e|----------------------------------------------------------------------|
B|----7-10-8~--10-10-8-7-----7-7----------------------------------------|
G|-----------------------7~------9-7-6~--9h11-9--9h11-9--7--------------|
D|--9------------------------------------------------------9~-----------|
A|----------------------------------------------------------------------|
E|----------------------------------------------------------------------|

e|----------------------------------------------------------------------|
B|---7-10-8~--10-10-8-7-----8-8-7---------10/-12v-----------------------|
G|----------------------7~--------7-6~----------------------------------|
D|-9--------------------------------------------------------------------|
A|----------------------------------------------------------------------|
E|----------------------------------------------------------------------|

ENJOY! :D

/Destroys
Tap to rate this tab
# A B C D E F G H I J K L M N O P Q R S T U V W X Y Z