Song name
# A B C D E F G H I J K L M N O P Q R S T U V W X Y Z

Soldiers Of Jah Army - Thunderstorms tab

1st Verse
e|--------------------------------------------------------------------------| 
B|-----------10---8-----------10--10-10b-8-----------10----88---------------| 
G|-9--9-7-----------9--9-7-----------------9--9-7-------------9--9-7----9---| 
D|---------9----------------9----------------------9------------------9-----| 
A|--------------------------------------------------------------------------| 
E|--------------------------------------------------------------------------| 


2nd Verse
e|---------------------------------------------------------------| 
B|---8-10-10b--8-10--8-------8-10-10b--10-8-10--1010-------------| 
G|-9-------------------9---9-------------------------------------| 
D|---------------------------------------------------------------| 
A|---------------------------------------------------------------| 
E|---------------------------------------------------------------| 

e|---------------------------------------------------------------| 
B|---8-10-10b--10b-10-8-----10b--8-10b--8-10b--10-8--------------| 
G|-9----------------------9--------------------------9-9---------| 
D|---------------------------------------------------------------| 
A|---------------------------------------------------------------| 
E|---------------------------------------------------------------| 


3rd Verse
e|-------------------------------------7/-10/-12/----------------| 
B|-10b--10-10--8-----10b---8-10--8----------------10-10---10-8---| 
G|---------------9-----------------9---------------------------9-| 
D|---------------------------------------------------------------| 
A|---------------------------------------------------------------| 
E|---------------------------------------------------------------| 

e|---------------------------------------------------------------| 
B|------7-8/10-10----8p7-----------------------------------------| 
G|----9------------------9-9~~~~~~~~~~~~~~-----------------------| 
D|---------------------------------------------------------------| 
A|---------------------------------------------------------------| 
E|---------------------------------------------------------------| 

ENJOY! :D

/Destroys
Tap to rate this tab
# A B C D E F G H I J K L M N O P Q R S T U V W X Y Z