Song name
# A B C D E F G H I J K L M N O P Q R S T U V W X Y Z

Soldiers Of Jah Army - True Love tab

Standard Tuning

e|-------------10---------------------------|
B|----------------10----------------9-10----|
G|----------11-------11----------11---------|
D|-------12-------------12----11----9-11----|
A|----12--------------------9---------------|
E|-10---------------------------------------|

e|---9--------------------------------------|
B|---9---------------10-9-------------------|
G|---9-------------9--9-9-------------------|
D|---------------9--------------------------|
A|-------------7----------------------------|
E|-9---9-12-9-------------------------------|

ENJOY! :D

/Destroys
Tap to rate this tab
 
# A B C D E F G H I J K L M N O P Q R S T U V W X Y Z