Song name
# A B C D E F G H I J K L M N O P Q R S T U V W X Y Z

Solefald - Hyperhuman tab

Band:  Solefald
Album: Pills Against The Ageless Ills
Song:  Hyperhuman
Website: http://www.solefald.org/ - Official Band Page

- Official band page on
Season Of Mist Records website

Copyright (c)  Century Media Records 2001
Version 1.0 - 12/14/06

Transcribed By: Steven Wiener aka Karpsmom
Email:          karpsmom at gmail.com


All chords are not written out to exact number of times played

_  - palm mute
/  - slide up to
~  - let note ring
** - pinch harmonic
) - pick slide
> - continue

Tuning E A D G B E


Verse X2
e|-X4---|--X4--|
b|------|------|
g|------|------|
d|-10-9-|-7-95-|
a|--0-0-|-0-00-|
E|------|------|

Chorus X4

  Gtr. 1                 Gtr. 2
e|---------------------|---------|
b|-16------------15----|---------|
g|----15-1615-13----15-|-----8-7-|
d|---------------------|-8-6-9-8-|
a|---------------------|-9-7-----|
E|---------------------|---------|

Then Verse

  Bridge gtr. 1
e|-)-|----X4---|
b|-)-|---------|
g|-)-|---------|
d|-)-|-4---4---|
a|-)-|-2-2-2-5-|
E|-)-|---0---3-|

Bridge gtr. 2 X4
e|------------|
b|------------|
g|------------|
d|-11-9-11-12-|
a|--9-7--9-10-|
E|------------|

Verse
Chorus
Bridge (without the pickslide)


Bridge 2 Part 1
e|-------10-------10--------8-------8----------13---------13---------15---------15-|
b|-----8--------8--------10------10---------15---------15---------13---------13----|
g|---9--------9--------9-------9---------14---------14---------14---------14-------|
d|-7--------7--------7-------7--------12---------12---------12---------12----------|
a|---------------------------------------------------------------------------------|
E|---------------------------------------------------------------------------------|

Part 2 X4

e|----X4--------|---|
b|--------------|---|
g|---_---__-----|---|
d|-7-7-7-77-7-7-|-7-|
a|-7-7-7-77-7-7-|-5-|
E|-5-5-5-55-5-5-|---|

Then Chorus
Tap to rate this tab
# A B C D E F G H I J K L M N O P Q R S T U V W X Y Z