Song name
# A B C D E F G H I J K L M N O P Q R S T U V W X Y Z

Solefald - Pornographer Cain tab

Band:  Solefald
Album: Pills Against The Ageless Ills
Song:  Pornographer Cain
Website: http://www.solefald.org/
Official Record Label Page: 
http://www.season-of-mist.com/light/index.php?action=bands&groupe=Solefald&datatype=biography

Copyright (c)  Century Media Records 2001
Version 1.0 - 12/14/06

Transcribed By: Steven Wiener aka Karpsmom
Email:          karpsmom at gmail.com


_  - palm mute          
/  - slide up to
~  - let note ring
** - pinch harmonic
) - pick slide
> - continue

Tuning E A D G B E

Intro

 gtrs 1 & 2           
e|-------------------------|
b|-------------------------|
g|-------------------------|
d|---_---_---_---_---_---_-|
a|-_-7-_-6-_-5-_-7-_-3-_-2-|
E|-0---0---0---0---0---0---|


Verse Part 1                
e|-------------------------|
b|-------------------------|
g|-------------------------|
d|---9---8---7---9---5---4-|
a|-_-7-_-6-_-5-_-7-_-3-_-2-|
E|-0---0---0---0---0---0---|

  Part 2 X2
e|------------------------------------------------------------------>
b|------------------------------------------------------------------>
g|------------------------------------------------------------------>
d|------------------4-5-4-------------------------------------4-5-4->
a|-7-6-_---__-----_-------7-5-_---__-----_-8-7-6-_---__-----_------->
E|-----0-7-00-2-3-0-----------0-6-00-6-7-0-------0-7-00-2-3-0------->

>-----------------------|
>-----------------------|
>-----------------------|
>-------------------9---|
>7-5-_---__-----_-8---8-|
>----0-6-00-6-7-0-------|


Repeat verse

Then Intro
Then

Verse Part 2 Variation X2
e|-------------------------------------------------------------------->
b|-------------------------------------------------------------------->
g|-------------------------------------------------------------------->
d|------------------4-5-4------------------*8*------------------4-5-4->
a|-7-6-_---__-----_-------7-5-_---__-----_-----7-6-_---__-----_------->
E|-----0-7-00-2-3-0-----------0-6-00-6-7-0---------0-7-00-2-3-0------->

>-----------------------|
>-----------------------|
>-----------------------|
>-------------------9---|
>7-5-_---__-----_-8---8-|
>----0-6-00-6-7-0-------|


Groovy part

 Part 1              Part 2 X2
e|----------------)-|---------------------------------------------------------|
b|----------------)-|---------------------------------------------------------|
g|----------------)-|---------------------------------------------------------|
d|----------------)-|---------------------------------------------------------|
a|-5-7----5-7-----)-|-5-7-----------5-7-----------5-7---------5-5-7---------5-|
E|-----6~-----6~--)-|-----6-3-0-3-7-----6-3-0-3-7-----6-5-3-7-------6-5-3-7---|

Clean Delay section (ease up off a little the palm mutes as the section goes on)

  Gtr. 1   X4       Gtr. 2 X4
e|----------------|---------|
b|----------------|---------|
g|---__-_-__------|---_-_---|
d|-_-57-7-10-_-__-|-_-7-3-_-|
a|-7-35-5--8-8-65-|-2-5-1-6-|
E|-5---------6-43-|-0-----4-|

Heavy part

Part 1

  Gtr. 1 X4
e|--------------------------------------------|
b|--------------------------------------------|
g|---------5-77-7-77/-1010-10-1010------------|
d|-77-7-77-------------------------88-8-8-6-5-|
a|--------------------------------------------|
E|--------------------------------------------|

   Gtr. 2 X4
e|-----------------------------------------|
b|-----------------------------------------|
g|-----------------------------------------|
d|-----------------------------------------|
a|-----------33-3-33-3-11-1-11-1-----------|
E|-00-0-00-0---------------------44-4-44-4-|

Part 2
   
   Guitar 1 X2
e|------------------------------------------|
b|------------------------------------------|
g|------------------------------------------|
d|------------------------------------------|
a|--------------------------------__---__---|
E|-5050505080808080130130130130-4-44-4-44-4-|

  Guitar 2 X2
e|------------------------------------------|
b|------------------------------------------|
g|------------------------------------------|
d|------------------------------------------|
a|--------------------------------__---__---|
E|-1201201201208080808060606060-4-44-4-44-4-|

Part 3

  Gtr. 1 & 2
e|-----------------------------------| play this X2
b|-----------------------------------| then X2 without
g|-----------_---_---_---_-----------| palm mutes
d|---_---_-5-5-5-5-3-3-3-3---_---_---| then X2 again
a|-2-2-2-2-3-3-3-3-1-1-1-1-3-3-3-3-6-|
E|-0-0-0-0-----------------1-1-1-1-4-|

Outro
   Guitar 1
e|-----------------|
b|-----------------|
g|-------_---_-----|
d|---_-5-5-3-3-_---|
a|-2-2-3-3-1-1-3-6-|
E|-0-0---------1-4-|

Guitar 2
e|-------------------------|
b|-------------------------|
g|-------_---_-5555-8888-4-|
d|---_-5-5-3-3-------------|
a|-2-2-3-3-1-1-------------|
E|-0-0---------------------|

End on the E chord
Tap to rate this tab
 
# A B C D E F G H I J K L M N O P Q R S T U V W X Y Z