Song name
# A B C D E F G H I J K L M N O P Q R S T U V W X Y Z

Solefald - The Usa Dont Exist tab

Band:  Solefald
Album: Pills Against The Ageless Ills
Song:  The U.S.A. Don't Exist
Website: http://www.solefald.org/
Official Record Label Page: 
http://www.season-of-mist.com/light/index.php?action=bands&groupe=Solefald&datatype=biography

Copyright (c)  Century Media Records 2001
Version 1.0 - 12/14/06

Transcribed By: Steven Wiener aka Karpsmom
Email:          karpsmom@gmail.com


all chords and/or notes are not written to the exact amount of times played

_  - palm mute          
/  - slide
~  - let note ring
\ - slide down neck
() - only play this the last time
h - hammer

Tuning E A D G B E

Intro
e|------------|
b|------------|
g|--------_---|
d|-_-__-_-8-_-|
a|-6-74-4-6-6-|
E|-4-52-2---4-|

Verse 

Part 1 is the intro with Cornelius bouncy rythm and no palm mutes

  Part 2

  Guitar 1 X4		     Guitar 2
e|----------12/11-11/12-----|---0-4---0---0---|
b|----------------------9(\)|-5-5-5-5-5-5-5-5-|
g|-13-14/11-----------------|-4-4-4-4-4-4-4-4-|
d|--------------------------|-5-5-5-5-5-5-5-5-|
a|--------------------------|-----------------|
E|--------------------------|-----------------|

Then Intro
Then Verse Part 1
Then Verse Part 2

 Chorus
e|-------------|
b|-------------|
g|-------------|
d|-_-_---_-_---|
a|-3-5-5-3-4-4-|
E|-1-1-1-1-1-1-|

Then Intro

Then Verse Part 1

Then Chorus

Hip-Hop part

  Guitar 1     Guitar 2
e|-----------|---|
b|-------6---|---|
g|-5h7-7---7-|-7-|
d|-----------|-0-|
a|-----------|---|
E|-----------|---|

Then Chorus
Then Hip Hop
Then Chorus
Then Intro
Then Verse Part 1

The End
Tap to rate this tab
 
# A B C D E F G H I J K L M N O P Q R S T U V W X Y Z