Guitaretab - guitar tabs
Song name
# A B C D E F G H I J K L M N O P Q R S T U V W X Y Z

Solefald - Nutrisco Et Exinguo tab

Band:  Solefald
Album: In Harmonia Universali
Song:  Nutrisco Et Exinguo
Website: http://www.solefald.org/
Official Record Label Band Page:
http://www.season-of-mist.com/light/index.php?action=bands&groupe=Solefald&datatype=biography

Copyright (c)  Century Media Records 2003
Version 1.0 - 12/14/06

Transcribed By: Steven Wiener aka Karpsmom
Email:          karpsmom@gmail.com


_  - palm mute          
/  - slide up to
~  - let note ring


Tuning E A D G B E


Part 1 X2
e|------------------------------------------------------------------|
b|------------------------------------------------------------------|
g|---7---7---7---7---7---7---7---7---7---7---7---7---7---7---7---7--|
d|-0-------0-------0-------0-------0-------0-------0-------0--------|
a|-----5---8---7-----------------------5---8---7--------------------|
E|-6---------------5---6---5---6---6---------------5---5---5---5----|


Part 2  Guitar 1 two times			    Guitar 2 two times
e|-3-3-3-3-3-3-3-3-3-3-3-3-3-3-3-3-3-3-3-3-|------------------|
b|-3-3-3-3-3-3-3-3-3-3-3-3-3-3-3-3-3-3-3-3-|-2--2-2-3-2-2-----|
g|-0-----------------0-0-----------0-0-2-3-|-0--0-0~~-0-0-----|
d|-0-0-0-3-2---2-2-3---0-0-0-3-2-3---------|--------------3-2-|
a|-----------0-----------------------------|------------------|
E|-----------------------------------------|------------------|

Verse part 1

  X4
e|------------------------------------------------------------------|
b|------------------------------------------------------------------|
g|--------------------------------------------------5-----7/9-----7-|
d|-7-----5-7-----5------------------7-----5-7-----5-----5-----7-5---|
a|---5-7-----5-7---8-----7-8-----7----5-7-----5-7-----7-------------|
E|-------------------6-5-----6-5------------------------------------|
[ Tab from: http://www.guitaretab.com/s/solefald/82229.html ]
Acoustic connector
e|------------------------------------------------------------------|
b|------------------------------------------------------------------|
g|---7---7---7---7---7---7---7---7---7---7---7---7---7---7---7---7--|
d|------------------------------------------------------------------|
a|-----5---8---7-----------------------5---8---7--------------------|
E|-6---------------5---6---5---6---6---------------5---5---5---5----|

Verse part 2 (played in the classic Cornelius bouncy rythm)
 
  Part A                              Part B (tremolo all notes) X2
e|---------------------------------|-------------------------------------|
b|---------------------------------|-------------------------------------|
g|---------------------------------|---------------------------0-2-3-2-3-|
d|---7-7-7-----------7-7-7---------|---2-3-2---2-3-5---2-3-2-3-----------|
a|-8-5-8-7-7-8-7-8-8-5-8-7-7-7-7-7-|---------0---------------------------|
E|-6-------5-6-5-6-6-------5-5-5-5-|-3---------------3-------------------|

Then play Part A twice, with guitar 2 releasing feedback in the key of D
Then play Part B

Hammond Solo with guitar playing Verse Part 1 ALOT of times, ALOT ALOT ALOT


Heavy section Pt.A X4        Part B X2
e|-------------------|-------------------|
b|---_---_---_---_-_-|---_---_---_---_---|
g|-5-5-3-3-5-5-3-3-7-|-3-3-3-3-3-3-3-3-7-|
d|-3-3-3-3-3-3-3-3-0-|-3-3-3-3-3-3-3-3-0-|
a|-1-1-1-1-1-1-1-1-0-|-1-1-1-1-1-1-1-1-0-|
E|-1-1-1-1-1-1-1-1-5-|-1-1-1-1-1-1-1-1-5-|

Sax solo Part A Repeat as needed

e|-------------------------------------------------------8------10/12------10-|
b|-10-----8-10-----8-------------------10-----8-10-----8------8-------10-8----|
g|----7-9------7-9---10-----9-10-----9----7-9------7-9-----10-----------------|
d|----------------------8-7------8-7------------------------------------------|
a|----------------------------------------------------------------------------|
E|----------------------------------------------------------------------------|

Then break in with Verse Part 1 X4

Then Acoustc connector
Then Verse Part 2

Then
e|-------------------|
b|---_---_---_---_-_-|
g|-3-3-3-3-3-3-3-3-7-|
d|-3-3-3-3-3-3-3-3-0-|
a|-1-1-1-1-1-1-1-1-0-|
E|-1-1-1-1-1-1-1-1-5-|

Then Heavy section

Then

Outro
e|-------|
b|-------|
g|-5-5-7-|
d|-3-3-0-|
a|-1-0-0-|
E|-1-1-5-|

Related for Nutrisco Et Exinguo tab
Advertisement will be closed in 10 seconds