Song name
# A B C D E F G H I J K L M N O P Q R S T U V W X Y Z

Solefald - Mont Blanc Providence Crow tab

Help us improve GuitareTab! Take a short survey!
Band:  Solefald
Album: In Harmonia Universali
Song:  Mont Blanc Providence Crow
Website: http://www.solefald.org/
Official Record Label Band Page:
http://www.season-of-mist.com/light/index.php?action=bands&groupe=Solefald&datatype=biography


Copyright (c)  Century Media Records 2003
Version 1.0 - 12/14/06

Transcribed By: Steven Wiener aka Karpsmom
Email:          karpsmom@gmail.com


_  - palm mute


Tuning E A D G B E


Verse Guitar 1 (Repeat as needed)
e|--------------------------------------------------------------------|
b|--------------------------------------------------------------------|
g|--------------------------------------------------------------------|
d|--------------------------------------------------------------------|
a|-___-7-_-5-7-_-7-___-0-2-___-----___-7-_-5-7-_-7-___-10-12-___-9-10-|
E|-0-0---0-----0---0-0-----0-0-3-5-0-0---0-----0---0-0-------0-0------|

Verse Guitar 2

  Do this a little bit     then this twice(I can't tell if this is guitar or synth for sure)
e|---------------9-10-11-|-------------------------|
b|---------11-12---------|-12-------13-12----------|
g|-9-11-12---------------|----12-14-------12-11----|
d|-----------------------|----------------------14-|
a|-----------------------|-------------------------|
E|-----------------------|-------------------------|

Hammond soloey part
e|------------------------------------------------------------------------------------------------------------|
b|------------------------------------------------------------------------------------------------------------|
g|------------------------------------------------------------------------------------------------------------|
d|------------------------------------------------------------------------------------------------------------|
a|-___-5-_-3-5-___-5-_-3-5-___-2-_-0-2-___-2-_-0-2-___-5-_-3-5-___-5-_-3-5-___-9-_-7-9-___-9-_-7-9------------|
E|-3-3---3-----3-3---3-----0-0---0-----0-0---0-----3-3---3-----3-3---3-----7-7---7-----7-7---7----------------|

e|--------------------------------------------------------------------------------------------------|
b|--------------------------------------------------------------------------------------------------|
g|--------------------------------------------------------------------------------------------------|
d|--------------------------------------------------------------------------------------------------|
a|-_____-12-__-10-12-_____-12-__-10-12-___-9-_-7-9-___-9-_-7-9-_____-12-__-10-12-_____-12-__-10-12--|
E|-10-10----10-------10-10----10-------7-7---7-----7-7---7-----10-10----10-------10-10----10--------|

e|------------------------------------------------------------------------------------------------------------|
b|------------------------------------------------------------------------------------------------------------|
g|------------------------------------------------------------------------------------------------------------|
d|------------------------------------------------------------------------------------------------------------|
a|-_____-16-__-14-16-_____-16-__-14-16------------------------------------------------------------------------|
E|-14-14----14-------14-14----14------------------------------------------------------------------------------|

Verse guitars (guitar two does it's two parts viceversa this time)
Then Hammond time again!

Then this

Bridge thingy X2
e|-----------------------------------------|
b|-12-0-15-0-14-0-17-0-19-0-19-0-17-0-17-0-|
g|-----------------------------------------|
d|-----------------------------------------|
a|-----------------------------------------|
E|-----------------------------------------|

  X2 tremolo this baby
e|-----------------------|
b|-----------------------|
g|-------_____-------___-|
d|-_____-5-7-5-_____-5-7-|
a|-5-8-7-3-5-3-5-8-7-3-5-|
E|-3-6-5-------3-6-5-----|

Bridge again

tremolo part again

heavy ass part

do it all twice

e|-----------|------X2---------------|
b|-----------|-----------------------|
g|-----------|-------5-7-5-------5-7-|
d|-9---------|-5-8-7-X-X-X-5-8-7-X-X-|
a|-X-a lot --|-X-X-X-3-5-3-X-X-X-3-5-|
E|-7-tremolo-|-3-6-5-------3-6-5-----|

Lazare Harmonia part (amounts of times to play notes are approximations)

  X2
e|---------------------------------------|
b|---------------------------------------|
g|---------------------------------------|
d|---------------------------------------|
a|---------------------------------------|
E|-2-2-2-2-3-0-0-0-0-0-2-2-2-2-7-7-7-6-6-|

X2 (im just writing the chords, the rythm and amount to play can be figured out by listening)
e|--------------|
b|--------------|
g|----------___-|
d|-_--_-_-_-4-4-|
a|-4--5-2-4-2-1-|
E|-2--3-0-2-----|

Verse time!
Then the hammondy part

Then the bridge part but, there's a second guitar playing a palm muted B5 power chord

D-4-
A-2-

then this played in the classic bouncy Cornelius guitar rythm

e|-----------------------|
b|-----------------------|
g|-----------------------|
d|-------5-7-5-------5-7-|
a|-5-8-7-3-5-3-5-8-7-3-5-|
E|-3-6-5-------3-6-5-----|

then the bridge guitar and the B5 chord again

Then the Lazare Harmonia part again

The End
Related for Mont Blanc Providence Crow tab