Song name
# A B C D E F G H I J K L M N O P Q R S T U V W X Y Z

Solefald - Red For Fire Black For Death tab

Band:  Solefald
Album: Black For Death: An Icelandic Odyssey Part 2
Song:  Red For Fire + Black For Death
Website: http://www.solefald.org/
Official Record Label Band Page:
http://www.season-of-mist.com/light/index.php?action=bands&groupe=Solefald&datatype=biography

Copyright (c)  Season Of Mist 2006
Version 1.0 - 12/14/06

Transcribed By: Steven Wiener aka Karpsmom
Email:          karpsmom@gmail.com


_  - palm mute          

> - continue

All notes and/or chords are not written out the exact
number of times played


Tuning C# F# B E G# C#


String Crescendo
C#|------|
G#|------|
E |------|
B |------|
F#|--8-7-|
C#|-10-9-|


   Verse

   Part A X2
C#|----------------------------------------------------------------->
G#|----------------------------------------------------------------->
E |----____----____--------------------____----____----------------->
B |-10-1010-10-1010----____----____-10-1010-10-1010----____----____->
F#|--8--8-8--8--8-8-10-1010-10-1010--8--8-8--8--8-8-10-1010-10-1010->
C#|------------------8--8-8--8--8-8------------------8--8-8--8--8-8->

>-------------------------------------------|
>-------------------------------------------|
>-----__---__-------------__---__-----------|
>---9-99-9-99---__---__-9-99-9-99---__---__-|
>---7-77-7-77-9-99-9-99-7-77-7-77-9-99-9-99-|
>-------------7-77-7-77-----------7-77-7-77-|

    Part B X2    PartC X2 Part D X4
C#|---X4--|----|--8-7----|-X8--|---|
G#|-------|----|--9-8----|-----|---|
E |-------|----|-10-9----|-----|---|
B |----__-|-__-|-10-9----|---_-|---|
F#|-12-12-|-11-|--8-7----|-7-7-|-5-|
C#|-10-10-|--9-|---------|-5-5-|-3-|


Epic part 
   
    Part A X4			      Part B X4
C#|---------------------------------|-----------------------------|
G#|---------------------------------|-----------------------------|
E |-7---7----9---5---5---3----2-320-|-7-7-7-7-9-5-3-3-3-3-2-2-0-0-|
B |---0---0----5---5---5---5--------|-0-0-0-0-5-5-5-5-5-5-3-3-2-2-|
F#|---------------------------------|-----------------------------|
C#|---------------------------------|-----------------------------|


Deathlike Silence section

   Part A 
     X16   Part B X2
C#|-----|------------------------------------------|
G#|-----|------------------------------------------|
E |-----|---_-----_---_---------_---_-----_--------|
B |-7-7-|-7-7-107-7-7-7-37537-7-7-7-7-107-7-5555-3-|
F#|-5-5-|-5-5--85-5-5-5-55555-5-5-5-5--85-5-5555-5-|
C#|---5-|-5---------5---------5---5----------------|

    Part C 
      
       X4
C#|-------------|-----5-----5-|
G#|---6---------|---6---8-6---|
E |-----7-7-7-7-|-7-----------|
B |-0-----0-0-0-|-0-----------|
F#|-------------|-------------|
C#|-------------|-------------|

Then String Crescendo
Then Verse

The End
Tap to rate this tab
# A B C D E F G H I J K L M N O P Q R S T U V W X Y Z