Song name
# A B C D E F G H I J K L M N O P Q R S T U V W X Y Z

Solefald - Buy My Sperm tab

Band:  Solefald
Album: In Harmonia Universali
Song:  Buy My Sperm

Copyright (c)  Century Media Records 2003
Version 1.0 - 12/14/06

Transcribed By: Steven Wiener aka Karpsmom
Email:          karpsmom@gmail.com


_  - palm mute          
\ - slide down neck
v - vibrato

Tuning E A D G B E

Main Riff
e|-----|
b|-----|
g|-----|
d|-----|
a|-5-6-|
E|-3-4-|

Verse Part 1
e|-----------------------------|
b|-----------------------------|
g|-----------------------------|
d|-----------------------------|
a|-----------------------------|
E|-3-5-3-6-3-8-4-7-4-6-4-5-4-6-|

Then main riff
then main riff with different, bouncy rythm

Verse Part 2
e|------------------------------|
b|------------------------------|
g|------------------------------|
d|-5-7-5-8-5-10-6-9-6-8-6-7-6-8-|
a|------------------------------|
E|------------------------------|

Then Main riff with bouncy rythm again
Then Verse Part 1

Pre-Chorus
 
   Gtr 1                 Gtr. 2
e|-3-4-8-7-11-9-14-16\-|---|
b|---------------------|---|
g|---------------------|---|
d|---------------------|-_-|
a|---------------------|-5-|
E|---------------------|-3-|

Chorus

Part 1                          pt.2 Part 3 X2
e|------------X4---------------|---|----------------|
b|-----------------------------|---|----------------|
g|-----------------------------|---|----------------|
d|-----------------------------|-_-|-______________-|
a|-------3-5-6-5---5-6-5-3-----|-5-|-5-7-8-5-7-8-10-|
E|-3-5-6---------3---------5-6-|-3-|-3-5-6-3-5-6--8-|

Play Part 1 and Part 2

Then 

Solo
e|----------------------------------------------------------------->
b|-------------------19-20-22-20-19-20---------------____-________->
g|----------17-19-20-------------------20-19-19-19\--0-00-111-1-33->
d|-17-18-20-------------------------------------------------------->
a|----------------------------------------------------------------->
E|----------------------------------------------------------------->

>------------------------------------------------------|
>------------------------------------------------------|
>-5-555-777-777-111111-1212121212----121212-11-12-12v\-|
>---------------------------------12-------------------|
>------------------------------------------------------|
>------------------------------------------------------|

Solo guitar 2 is Chorus Part 3

Then play main riff

Then Verse Part 1

Then Main Riff

Then Main riff with palm mutes
Tap to rate this tab
 
# A B C D E F G H I J K L M N O P Q R S T U V W X Y Z