Guitaretab - guitar tabs
Song name
# A B C D E F G H I J K L M N O P Q R S T U V W X Y Z

Solitude Rebels - Betrayal tab

band - the black maria
song - betrayal
Taber-Justin Sturek
tune - D,a,d,g,b,e

Guitar 1

-------------------------------------------|
b--101010-8-8-8--101010-8-8-8-1111-1010----|
g--101010-101010-101010-10101-1010-1010----|
d------------------------------------------|
a------------------------------------------| x8
D------------------------------------------|

pre-chorus
e-----------------------------------------------------------------|
b-----------------------------------1010-10-8-8--8--1111-11-1010--|
g--1414-14/1212-12/1414-1414/15\14--1010-10-1010-10-1010-10-1010--|
d--x-x--x-/x-x--x-/x-x--x-x-/x-\x---------------------------------|
a--1212-12/1010-10/1212-1212/13\12--------------------------------| x4
d-----------------------------------------------------------------|

e----------------------------------------|
b--101010-8-8-8--101010-8-8-8-1111-1010--|
g--101010-101010-101010-10101-1010-1010--|
d----------------------------------------|
a----------------------------------------| x8
D----------------------------------------|
[ Tab from: http://www.guitaretab.com/s/solitude-rebels/133779.html ]
pre-chorus
e-----------------------------------------------------------------|
b-----------------------------------1010-10-8-8--8--1111-11-1010--|
g--1414-14/1212-12/1414-1414/15\14--1010-10-1010-10-1010-10-1010--|
d--x-x--x-/x-x--x-/x-x--x-x-/x-\x---------------------------------|
a--1212-12/1010-10/1212-1212/13\12--------------------------------| x4
d-----------------------------------------------------------------|

chorus
e----------------------------------------|
b--101010-8-8-8--101010-8-8-8-1111-1010--|
g--101010-101010-101010-10101-1010-1010--|
d----------------------------------------|
a----------------------------------------| x12
D----------------------------------------|

bridge
e----------------------------------------|
b--101010-8-8-8--101010-8-8-8-1111-1010--|
g--101010-101010-101010-10101-1010-1010--|
d----------------------------------------|
a----------------------------------------| x10
D----------------------------------------|

chorus
e----------------------------------------|
b--101010-8-8-8--101010-8-8-8-1111-1010--|
g--101010-101010-101010-10101-1010-1010--|
d----------------------------------------|
a----------------------------------------| x12
D----------------------------------------|

Outro
e------|
b------|
g------|
d--3~--|
a--3~--|
d--3~--|
Related for Betrayal tab
×
Betrayal