Song name
# A B C D E F G H I J K L M N O P Q R S T U V W X Y Z

Somedaydream - Hey Daydreamer tab

Capo 6th Fret lang guys 


Intro:

e|---2-----2---------3-----3---------5-----5---------0-----0------|
B|-----3------3---3----3------3---3----3------3---3----3------3---|
G|-------2------2--------2------2--------2------2--------2------2-|
D|----------------------------------------------------------------|
A|----------------------------------------------------------------|
E|----------------------------------------------------------------|


 
Verse 1:
                      D                 Em7
e|--------------------2--x--x--x--x-----0--x--x--x--x-------------|
B|--------------------3--x--x--x--x-----0--x--x--x--x-------------|
G|--------------------2--x--x--x--x-----0--x--x--x--x-------------|
D|--------------------0--x--x--x--x-----0--x--x--x--x-------------|
A|--------------------x--x--x--x--x-----2--x--x--x--x-------------|
E|--------------------x--x--x--x--x-----0--x--x--x--x-------------|

Oh you could just pretend to be with her all day
    G                          A7
e|--3--x--x--x--x--------------0--x--x--x--x----------------------|
B|--3--x--x--x--x--------------2--x--x--x--x----------------------|
G|--0--x--x--x--x--------------0--x--x--x--x----------------------|
D|--0--x--x--x--x--------------2--x--x--x--x----------------------|
A|--2--x--x--x--x--------------0--x--x--x--x----------------------|
E|--3--x--x--x--x--------------x--x--x--x--x----------------------|
Remember the feeling when you first held hands today
  D                   Em7
e|2--x--x--x--x-------0--x--x--x--x-------------------------------|
B|3--x--x--x--x-------0--x--x--x--x-------------------------------|
G|2--x--x--x--x-------0--x--x--x--x-------------------------------|
D|0--x--x--x--x-------0--x--x--x--x-------------------------------|
A|x--x--x--x--x-------2--x--x--x--x-------------------------------|
E|x--x--x--x--x-------0--x--x--x--x-------------------------------|
Imagine her in your favorite white dress
  G                        A7
e|3--x--x--x--x------------0--0--0--0--0--0--0--0-----------------|
B|3--x--x--x--x------------2--2--2--2--2--2--2--2-----------------|
G|0--x--x--x--x------------0--0--0--0--0--0--0--0-----------------|
D|0--x--x--x--x------------2--2--2--2--2--2--2--2-----------------|
A|2--x--x--x--x------------0--0--0--0--0--0--0--0-----------------|
E|3--x--x--x--x------------x--x--x--x--x--x--x--x-----------------|
Smiling at you as if she thinks that you're the best
              D            Em7
She tells you "You and me, sitting on a tree,
G       A7
K-I-S-S-I-N-G."
              D                           Em7
You tell her, "Baby hear me out, will you marry me tonight?"
              G
We're in this make believe reality
    A7                         A7
And baby it's just you and me


Refrain:
            A/F#
e|-----------0--0--0--0--0--0--0--0-------------------------------|
B|-----------2--2--2--2--2--2--2--2-------------------------------|
G|-----------2--2--2--2--2--2--2--2-------------------------------|
D|-----------2--2--2--2--2--2--2--2-------------------------------|
A|-----------x--x--x--x--x--x--x--x-------------------------------|
E|-----------2--2--2--2--2--2--2--2-------------------------------|
Coz when tonight she holds you tight
                    G
e|------------------3--3--3--3--3--3--3--3------------------------|
B|------------------3--3--3--3--3--3--3--3------------------------|
G|------------------0--0--0--0--0--0--0--0------------------------|
D|------------------0--0--0--0--0--0--0--0------------------------|
A|------------------2--2--2--2--2--2--2--2------------------------|
E|------------------3--3--3--3--3--3--3--3------------------------|
You wonder if this fantasy is right
           A/F#
e|---------0--0--0--0--0--0--0--0---------------------------------|
B|---------2--2--2--2--2--2--2--2---------------------------------|
G|---------2--2--2--2--2--2--2--2---------------------------------|
D|---------2--2--2--2--2--2--2--2---------------------------------|
A|---------x--x--x--x--x--x--x--x---------------------------------|
E|---------2--2--2--2--2--2--2--2---------------------------------|
Coz when reality comes to play
                  G                  A7
You realize you couldn't make her stay


Chorus:

D      Em7
Hey Daydreamer
    G                    A7
You gotta be prepared to leave her in your fantasy
    D         Em7       G
Coz when it's over, you gotta make sure
          A7
that it's you who'll be with her

[Interlude]
e|---2-----2-----2---3-----3-----3---5-----5-----5----0-----0----0|
B|-----3-----3---------3-----3---------3-----3----------3-----3---|
G|-------2-----2---------2-----2---------2-----2----------2-----2-|
D|-0---------------2---------------5------------------------------|
A|--------------------------------------------------0-------------|
E|----------------------------------------------------------------|

Verse 2:
                     D            Em7
Oh, you could be her soldier, her knight in shining armor
G                           A7
I'm sure you wanna make her feel how much you love her
D                                Em7
And you wish to God that she can see the world in your eyes
G                       A7
So she can realize that she's the girl in your mind
D                         Em7
And you don't mind if you don't make it out alive
        G                                    A7
Coz you knew right from the start that she's such a boy killer

(I'm dying, I'm dying, yeah)


Refrain:
            A/F#
e|-----------0--0--0--0--0--0--0--0-------------------------------|
B|-----------2--2--2--2--2--2--2--2-------------------------------|
G|-----------2--2--2--2--2--2--2--2-------------------------------|
D|-----------2--2--2--2--2--2--2--2-------------------------------|
A|-----------x--x--x--x--x--x--x--x-------------------------------|
E|-----------2--2--2--2--2--2--2--2-------------------------------|
Coz when tonight she holds you tight
                    G
e|------------------3--3--3--3--3--3--3--3------------------------|
B|------------------3--3--3--3--3--3--3--3------------------------|
G|------------------0--0--0--0--0--0--0--0------------------------|
D|------------------0--0--0--0--0--0--0--0------------------------|
A|------------------2--2--2--2--2--2--2--2------------------------|
E|------------------3--3--3--3--3--3--3--3------------------------|
You wonder if this fantasy is right
           A/F#
e|---------0--0--0--0--0--0--0--0---------------------------------|
B|---------2--2--2--2--2--2--2--2---------------------------------|
G|---------2--2--2--2--2--2--2--2---------------------------------|
D|---------2--2--2--2--2--2--2--2---------------------------------|
A|---------x--x--x--x--x--x--x--x---------------------------------|
E|---------2--2--2--2--2--2--2--2---------------------------------|
Coz when reality comes to play
                  G                  A7
You realize you couldn't make her stay


Chorus:

D      Em7
Hey Daydreamer
    G                    A7
You gotta be prepared to leave her in your fantasy
    D         Em7       G
Coz when it's over, you gotta make sure
          A7
that it's you who'll be with her

D      Em7
Hey Daydreamer
    G                    A7
You gotta be prepared to leave her in your fantasy
    D         Em7       G
Coz when it's over, you gotta make sure
          A7                 G
that it's you who'll be with her

                                A/F#        G
And I couldn't believe we're dreaming
                           A/F#   
I couldn't believe we're leaving this world
                   Em7           A/F#
For one with more fantasy, just you and me
         G                   A7
So that tonight we both can finally be
          Cadd9
can finally be....



Chorus:

D      Em7
Hey Daydreamer
    G                    A7
You gotta be prepared to leave her in your fantasy
    D         Em7       G
Coz when it's over, you gotta make sure
          A7
that it's you who'll be with her

D      Em7
Hey Daydreamer
    G                    A7
You gotta be prepared to leave her in your fantasy
    D         Em7       G
Coz when it's over, you gotta make sure
          A7                   D
that it's you who'll be with her


aWman :)
Tap to rate this tab
# A B C D E F G H I J K L M N O P Q R S T U V W X Y Z