Song name
# A B C D E F G H I J K L M N O P Q R S T U V W X Y Z

Someone Special And The Unknowns - Stop The Judging tab

#----------------------------------PLEASE NOTE---------------------------------#
#This file is the author's own work and represents their interpretation of the #
#song. You may only use this file for private study, scholarship, or research. #
#------------------------------------------------------------------------------#
#------------Created with Taborama Tab Creator-----www.taborama.com------------#
#------------------------------------------------------------------------------#

Title: Stop The Judging
Artist: Someone Special And The Unknowns
Album: 8th Grade Was The Best 3 Years Of My Life

Instrument: Guitar

Tabbed by: Gil Raitses (The Guitarist for the band) (Someonespecialandtheunknowns@yahoo.com)

Tuning: Standard (E A D G B E)

----------------------------Stop-The-Judging-----------------------------
Intro & Verse

E|-------------------------------------------------------------------||
B|-------------------------------------------------------------------||
G|-----x-7-----------------------------------------------------------||
D|-x-5-x-7-x-9-x-7---------------------------------------------------||
A|-x-5-x-5-x-9-x-7---------------------------------------------------||
E|-x-3-----x-7-x-5---------------------------------------------------||

Chorus

E|-------------------------------------------------------------------||
B|-------------------------------------------------------------------||
G|---7---------------------------------------------------------------||
D|-5-7-9-7-----------------------------------------------------------||
A|-5-5-9-7-----------------------------------------------------------||
E|-3---7-5-----------------------------------------------------------||

Ok, now here is the order and the number of time you have to do each riff. Pay attention and be careful 
the number of time you play everything changes for each time you play it because of Andrew singing speed and 
length of the verses.

Intro & Verses 9 times (stop for 4 measures for the bass and drum solos).

The Chorus 8 times.

Intro & Verses 6 times (stop for 4 measures for the bass and drum solos).

The Chorus 8 times.

Intro & Verses 5 times.(stop for 4 measures for the bass and drum solos).

The Chorus 12 times.

Intro & Verses Once (on the last note, let it ring).

Thats it, and it is 100% correct because I am the guitarist for the band. ROCK ON! -Someone Special And 
Unknowns.
Tap to rate this tab
 
# A B C D E F G H I J K L M N O P Q R S T U V W X Y Z