Guitaretab - guitar tabs
Song name
# A B C D E F G H I J K L M N O P Q R S T U V W X Y Z

Someone Still Loves You Boris Yeltsin - Yr Broom tab

Yr Broom by Someone Still Loves You Boris Yeltsin
Broom, 2005

Tabbed by Thomas Buhler
If you find any mistakes, or have any questions about this tab, email me at:
t[dot]buhler[dot]007[at]gmail[dot]com

Standard Tuning (EADGBe)

Chords:
A   - x02220
Bm  - x24432
F#m - 244222
E   - 022100
G   - 320003
F#  - 244322
B   - x24442

RIFF 1: (use marked chords to get timing)
  A                Bm               F#m              E
e|----------------|----------------|----------------|-------------0--|
B|-----5-------5--|-----5-------5--|-----5-------5--|----------------|
G|---6---6---6---6|---6---6---6---6|---6---6---6---6|-7--6---4--2----|
D|-7-------7------|-7-------7------|-7-------7------|----------------|
A|----------------|----------------|----------------|----------------|
E|----------------|----------------|----------------|----------------|
[ Tab from: http://www.guitaretab.com/s/someone-still-loves-you-boris-yeltsin/103111.html ]
RIFF 2: (use marked chords to get timing)
  A                Bm               F#m              E
e|----------------|----------------|----------------|-------------0--|
B|---------5------|---------5------|---------5------|----------------|
G|---2------------|---2------------|---2------------|-7--6---4--2----|
D|-4--------------|-4--------------|-4--------------|----------------|
A|----------------|----------------|----------------|----------------|
E|----------------|----------------|----------------|----------------|


VERSE 1: (play with RIFF1 in the background)
A             Bm           F#m E
Going through your things 
A              Bm       F#m E
Thatís the way I think 

CHORUS:
G           F#                 B        E
  You had a crush and he would rub your feet
G             F#                 B     E 
  You were in love and you would fall asleep 

VERSE 2: (play with RIFF2 in the background)
A             Bm         F#m E
Can't get rid of things 
A              Bm      F#m E
Can't keep everything 

CHORUS:
G            F#              B       E
  You have a crush and he is all you need 
G            F#               B     E
  You have a room that I will never see

OUTRO: (x4)
A, Bm, F#m, E


Related for Yr Broom tab