Song name
# A B C D E F G H I J K L M N O P Q R S T U V W X Y Z

Someone Still Loves You Boris Yeltsin - The Clod And The Pebble tab

Off the Tape Club album, presenting...

The Clod and the Pebble



Intro:
e|-----3-----3-----3-----3-----3-----3-----3-----3--|
B|---4-----4-----4-----4-----3-----3-----3-----3----|
G|-3-----3-----3-----3-----3-----3-----3-----3------|
D|--------------------------------------------------|
A|--------------------------------------------------|
E|--------------------------------------------------|

e|-----6-----6-----6-----6-----4-----6-4-----3------|
B|---8-----8-----8-----8-----4-----4-------4---4----|
G|/7-----7-----7-----7-----5-----5-------5-------5--|
D|--------------------------------------------------|
A|--------------------------------------------------|
E|--------------------------------------------------|

e|-----3-----3-----3-----3-----3-----3-----3-----3--|
B|---4-----4-----4-----4-----3-----3-----3-----3----|
G|-3-----3-----3-----3-----3-----3-----3-----3------|
D|--------------------------------------------------|
A|--------------------------------------------------|
E|--------------------------------------------------|

e|-----6-----6-----6-----6-----4-----6-4-----3------|
B|---8-----8-----8-----8-----4-----4-------4-----4--|
G|/7-----7-----7-----7-----5-----5-------5-----5----|
D|--------------------------------------------------|
A|--------------------------------------------------|
E|--------------------------------------------------|

Piano part:
e|---15-13-11-10-----10---13-15-13-15-11-----11-13--|
B|-----------------11----------------------13-------|
G|--------------------------------------------------|
D|--------------------------------------------------|
A|--------------------------------------------------|
E|--------------------------------------------------|

e|---15-13-11-10-----10---13-15-13-15-11----11-13---|
B|-----------------11--------------------13---------|
G|--------------------------------------------------|
D|--------------------------------------------------|
A|--------------------------------------------------|
E|--------------------------------------------------|


Verse 1:
e|-----3-----3-----3-----3-----3-----3-----3-----3--|
B|---4-----4-----4-----4-----3-----3-----3-----3----|
G|-3-----3-----3-----3-----3-----3-----3-----3------|
D|--------------------------------------------------|
A|--------------------------------------------------|
E|--------------------------------------------------|

e|-----6-----6-----6-----6-----4-6-----4-----3------|
B|---8-----8-----8-----8-----4-------4-----4---4----|
G|/7-----7-----7-----7-----5-------5-----5-------5--|
D|--------------------------------------------------|
A|--------------------------------------------------|
E|--------------------------------------------------|

e|-----3-----3-----3-----3-----3-----3-----3-----3--|
B|---4-----4-----4-----4-----3-----3-----3-----3----|
G|-3-----3-----3-----3-----3-----3-----3-----3------|
D|--------------------------------------------------|
A|--------------------------------------------------|
E|--------------------------------------------------|

e|-----6-----6-----6-----6-----4-6-----4-----3------|
B|---8-----8-----8-----8-----4-------4-----4-----4--|
G|/7-----7-----7-----7-----5-------5-----5-----5----|
D|--------------------------------------------------|
A|--------------------------------------------------|
E|--------------------------------------------------|


Interlude
e|-----3-----3-----3-----3-----3-----3-----3-----3--|
B|---4-----4-----4-----4-----3-----3-----3-----3----|
G|-3-----3-----3-----3-----3-----3-----3-----3------|
D|--------------------------------------------------|
A|--------------------------------------------------|
E|--------------------------------------------------|

e|-----3-----3-4-----3---------4-6-----4-----3------|
B|---2-----2-------2-----2---4-------4-----4---4----|
G|-3-----3-------3-----3---5-------5-----5-------5--|
D|--------------------------------------------------|
A|--------------------------------------------------|
E|--------------------------------------------------|

repeat once.

The cello part:
e|---|---|---|---|---|---|---|---|
B|---|---|---|---|---|---|---|---|
G|---|---|---|---|---|---|---|---|
D|---|---|---|---|---|-3-|-1-|---|
A|-6-|---|-4-|---|-6-|-1-|-4-|-6-|
E|---|-6-|---|-4-|---|---|---|-4-|

Verse 2:
Guitar 1 repeats Verse 1, while Guitar 2 plays:
e|--------------------------------------------------|
B|-----4-----4-----4-----4-----4-----4-----4-----4--|
G|---0-----0-----0-----0-----0-----0-----0-----0----|
D|-------------------------5-----5-----5-----5------|
A|-6-----6-----6-----6------------------------------|
E|--------------------------------------------------|

e|--------------------------------------------------|
B|-----4-----4-----4-4---4-----4-4---4-----4-----4--|
G|-5-----5-----5-----------7-----------7-----5------|
D|---5-----5-----5-----5-----5-----5-----5-----5----|
A|--------------------------------------------------|
E|--------------------------------------------------|

repeat once.


Ooh's and Aah's part:
Wait 5 measures then...
e|-----3-|-----3-----3-4-----3---------4-6-----4-----3------|
B|---3---|---2-----2-------2-----2---4-------4-----4---4----|
G|-3-----|-3-----3-------3-----3---5-------5-----5-------5--|
D|-------|--------------------------------------------------|
A|-------|--------------------------------------------------|
E|-------|--------------------------------------------------|

e|-----3-----3-----3-----3-----3-----3-----3-----3--|
B|---4-----4-----4-----4-----3-----3-----3-----3----|
G|-3-----3-----3-----3-----3-----3-----3-----3------|
D|--------------------------------------------------|
A|--------------------------------------------------|
E|--------------------------------------------------|

e|-----3-----3-4-----3---------4-6-----4-----3h4p3----|
B|---2-----2-----2-----2-----4-------4-----4-------4--|
G|-3-----3---------3-----3/5-------5-----5------------|
D|----------------------------------------------------|
A|----------------------------------------------------|
E|----------------------------------------------------|

Verse 3:
Guitar 1 repeats Verse 1, Guitar 2 plays:       
e|--------------------------------------------------|
B|-----4-----4-----4-----4-----4-----4-----4-----4--|
G|---0-----0-----0-----0-----0-----0-----0-----0----|
D|-------------------------5-----5-----5-----5------|
A|-6-----6-----6-----6------------------------------|
E|--------------------------------------------------|

e|--------------------------------------------------|
B|-----4-----4-----4-----4-----4-----4-----4-----4--|
G|-5-----5-----5-----5-------0-----0-----0-----0----|
D|---5-----5-----5-----5---5-----6-----5------------|
A|-------------------------------------------6------|
E|--------------------------------------------------|

e|--------------------------------------------------|
B|-----4-----4-----4-----4-----4-----4-----4-----4--|
G|---0-----0-----0-----0-----0-----0-----0-----0----|
D|-------------------------5-----5-----5-----5------|
A|-6-----6-----6-----6------------------------------|
E|--------------------------------------------------|

e|--------------------------------------------------|
B|-----4-----4-----4-----4-----4-----4-----4--------|
G|-5-----5-----5-----5-------0-----0-----0----------|
D|---5-----5-----5-----5---6-----5-----3------------|
A|-------------------------------------------6~-----|
E|--------------------------------------------------|

Outro:
e|-----3-----3-----3-----3-----3-----3-----3-----3--|
B|---4-----4-----4-----4-----3-----3-----3-----3----|
G|-3-----3-----3-----3-----3-----3-----3-----3------|
D|--------------------------------------------------|
A|--------------------------------------------------|
E|--------------------------------------------------|
                             
e|-----3-----3-4-----3---------4-6-----4-----3h4p3----|
B|---2-----2-------2---2-----4-------4---4---------4--|
G|-3-----3-------3-------3/5-------5-------5----------|
D|----------------------------------------------------|
A|---------------------------(---slowdown here!---)---|
E|----------------------------------------------------|
    
End on:
e|---3~-|
B|--4~--|
G|-3~---|
D|------|
A|------|
E|------|

And that's it!

Feel free to message/email me to give me suggestions for other songs to tabulate,
and I'll be checking the comments section below for any corrections.

And now for the lyrics, for those of you who want to sing along...


Love seeketh not Itself to please,
Nor for itself hath any care;
But for another gives its ease,
And builds a Heaven in Hell's despair.

So sang a little Clod of Clay,
Trodden with the cattle's feet:
But a pebble of the brook,
Warbled out these metres meet.

Love seeketh only Self to please,
To bind another to Its delight:
Joys in another's loss of ease,
And builds a Hell in Heaven's despite.
Tap to rate this tab
# A B C D E F G H I J K L M N O P Q R S T U V W X Y Z