Song name
# A B C D E F G H I J K L M N O P Q R S T U V W X Y Z

Someone Still Loves You Boris Yeltsin - Broom tab

          Someone Still Loves You, Boris Yeltsin
                       Broom [2005]

         Tabbed by Brian Coney (brianconey@gmail.com)
                [corrections, comments, etc.]


Listen to each song to discover the rhythm of the chords
and tab displayed. At the bottom of the page are  
'unusual' chords which are used in the record. Enjoy :)

1. Pangea
2. I Am Warm & Powerful
3. What'll We Do
4. Travel Song
5. Oregon Girl
6. House Fire
7. Yr Broom
8. Anna Lee
9. Anne Elephant
10. Gwyneth


1. Pangea

Em sounds better as a barre chord rather 
than an open chord in this song.

Intro/Verse:
D, C, G, Bm, A, Em x 2
D, C, G, Bm, A, Em (Soft, palm-muted) x 2,
D, C, G, Bm, A, Em x 2

(Fig. 1)                     Strum D 
e|---2---0---2---0---2---0----------|
B|--3-3-3-3-3-3-3-3-3-3-3-3---------|
G|-2---0---2---0---2---0---2--------|

Chorus:
D, Bm, G, Gm x 2

With: 

(Fig. 2)
e|--------------------------------------------------|
B|-------------------------10-10-10-10-10-10-10-10--|
G|-11-11-11-11-11-11-11-11--------------------------|
D|-------------------------7--7--7--7--7--7--7--7---|
A|-9--9--9--9--9--9--9--9---------------------------|
E|--------------------------------------------------|

e|------------------------------|
B|-12-12-12-14-12------------*--|
G|----------------12-12-12-12---| 
D|-9--9--9--12-10---------------| (*Only in the 1st Chorus, and
A|----------------10-10-10-10---|  the 1st time playing Fig. 2,
E|------------------------------|  end in an A# octave dyad
                                   rather than the shown G)
D, G, D, A,
D, G, D

Verse 2:
D, C, G, Bm, A, Em (Soft)
D, C, G, Bm, A, Em

(Fig. 1)

Chorus 2: 
D, Bm, F#m, G, Gm (Listen to song for rhythm)
D, Bm, G, Gm (With Fig. 2) x 3

Outro:
D, G, D, A,
D, G, strum D

With:

(Fig. 3)                       (D played here)
e|------------------------------*---------------|
B|----------------------------------------------|
G|-11-11-12-11-9-7------11-11-12-11-------------|
D|-----------------x-3--------------------------|
A|-9--9--10-9--7-5------9--9--10-9--------------|
E|----------------------------------------------|


2. I Am Warm & Powerful

Intro/Chorus:
A, D, F#m, C#m, Bm, C#m, D, E x 3

With:

(Fig. 1)
e|------------------------------------------------|
B|-9-9----------------------9-10-9---9------------|
G|-----9-9-11-11----------9--------9---9----------|
D|---------------10-10-11-------------------------|
A|------------------------------------------------|
E|------------------------------------------------|

e|-----------------------9---9--------------------|
B|-12-10-12-10--12--12----------14----14----------|
G|---------------------------------14----14-------|
D|------------11--11---12--12---------------------|
A|-----------------------------------(Also-x-3)---|
E|------------------------------------------------|

Verse:
A, D, F#m, C#m, Bm, C#m, D, E x 2

(With Fig. 1 the 2nd time)

Bridge:
F#m, C#m, D, Bm x 3
A, D, A, D

Verse 2:
A, D, E, F#m, C#m, D, E,
A, D, F#m, C#m, D, C#m, 
D, E

With:

(Fig. 2)                       (A)            (D)
e|-[---0---5p0-0---0---5p0-0-]-----5------------0----|
B|-[-7---7-------7---7-------]---5---5---5----5------|(Only play [  ]
G|-[-------------------------]-6-------6----7-----7--| the first time)
D|---------------------------------------------------|
A|---------------------------------------------------|
E|---------------------------------------------------|
                               (F#m)
e|-----4-----------4-------------9----------------|
B|---5---5---5---5---5---5----10---10---10--------|
G|-7-------7---7-------7----9---------9-----------|
D|------------------------------------------------|
A|------------------------------------------------|
E|------------------------------------------------|
       (C#m)          (D)           (E)
e|------7--------------9-------------12-----------|
B|---10---10---10---10---10---10---9----9---------|
G|-9---------9----9---------9----9--------9-------|
D|------------------------------------------------|
A|----------------------------------(Also-x-2)----|
E|------------------------------------------------|

F#m, E, D, A
"We've got each other"

Verse 3:
A, D, F#m, C#m, Bm, C#m, D, E (Soft)
A, D, F#m, C#m, Bm, C#m, D, E x 3 (With Fig. 1)

End on A.


3. What'll We Do

Note: *Bm with an F# bass note, just to fit the whole
descending piano/bass line!
 
Intro/Chorus:
G, Bm/F#*, C, Cm x 4

With:

(Fig. 1) Piano Part 1.
e|--------10----------10----------15----------15-----|
B|-----12----12----12----12----17----15----16----16--|
G|--12----------11----------17----------17-----------|
D|---------------------------------------------------|
A|----------------------------------(Also-x-4)-------|
E|---------------------------------------------------|

Or the easier:

e|--------------------------------------|
B|------3-------3-------5-------4-------|
G|----4---4---4---4---5---5---5---5-----|
D|--5-------4-------5-------5-----------|
A|--------------------------------------|
E|--------------------------------------|

Verse:
Em, D, C x 2

With:

(Fig. 2) Piano Part 2.
e|------7-------7-------3--5--3----|
B|----8---8---8---8---5------------|
G|--9-------7-------5--------------|
D|---------------------------------|
A|-------------------(Also-x-2)----|
E|---------------------------------|

Bm, Em, Dm, C, D, G x 2

With:

(Fig. 3) Piano Part 3.
e|------2-------2-------7-------7------3-------5----|
B|----3---3---3---3---8---8---8--8---5---5---7---7--|
G|--4-------4-------9-------7------5-------7--------|
D|--------------------------------------------------|
A|--------------------------------------------------|
E|--------------------------------------------------|

e|-----------------|
B|-[---0-3-5-3-]---|
G|-[-0---------]---|(Play Fig. 3 twice with the chords
D|-----------------| the first time, but without the 
A|-----------------| [ ] to the left the 2nd time round)
E|-----------------|

Chorus 2:
G, Bm/F#, C, Cm x 2 (With Fig. 1)

Bridge:

(Fig. 4)                             (C)
e|---------------------------------------------------|
B|----3------3------3--------------------------------|
G|--4---4--4---4--4---4--2---------------------------|
D|-------------------------5p0---(x-7-times)---------|
A|---------2------3----------------------------------|
E|--3------------------------------------------------|

Verse 2:
Bm, Em, Dm, C, D, G x 2 
(With Fig. 3 - "[  ]" still applies)

Chorus 3:
G, Bm/F#, C, Cm x 2 
(With Fig. 1)

Verse 3/Outro:
Em, D, C x 4


4. Travel Song

Intro:
(Fig. 1) Piano Part 1
e|----4-----------------|
B|------7-4---4---------|
G|--4-------6-----------|
D|--------------[2]-----|([2] only the second time)
A|-----------(Play x-2)-|
E|--0-------------------|

Verse: 
G#m, C#m, B, E, B, E, C#m x2

Chorus: 
D#m, G#m, Em, B,
D#m, G#m, Em

Bridge: 
C#m, G#m, B,
C#m, G#m, B, Em

Verse 2: 
G#m, C#m, B, E, B, E, C#m x2

Chorus 2: 
D#m, G#m, Em, B,
D#m, G#m, Em

Bridge 2: 
C#m, G#m, B,
C#m, G#m, B, Em

Interlude:
  (G#m)   (C#m)    (B)     (E)     (B)     (E)   (C#m)
e|-4-4-----4-4-----2-2-----0-0-----2-2-----0-0-----4------------|
B|-4-4-4br-5-5-4br-4-4-4br-0-0-4br-4-4-4br-0-0-4br-5------------|
G|-4-4-----6-6-----4-4-----1-1-----4-4-----1-1-----6-(Play-x-2)-|
D|-6-6-----6-6-----4-4-----2-2-----4-4-----2-2-----6------------|
A|-6-6-----4-4-----2-2-----2-2-----2-2-----2-2-----4------------|
E|-4-4---------------------0-0-------------0-0------------------|

2nd time played with:

(Fig. 2) Piano Part 2.
e|-11--12--11--12--14-------14------------14-------------|
B|--------------------12-------12---12-------12---12--9--|
G|-----------------------11-------9----11-------9--------|
D|-------------------------------------------------------|
A|-------------------------------------------------------|
E|-------------------------------------------------------|

Chorus 3: 
D#m, G#m, Em, B,
D#m, G#m, Em

Bridge 3: 
C#m, G#m, B,
C#m, G#m, B, Em.

Outro (With Fig. 2):
  (G#m)   (C#m)    (B)     (E)     (B)     (E)   (C#m)
e|-4-4-----4-4-----2-2-----0-0-----2-2-----0-0-----4----|
B|-4-4-4br-5-5-4br-4-4-4br-0-0-4br-4-4-4br-0-0-4br-5----|
G|-4-4-----6-6-----4-4-----1-1-----4-4-----1-1-----6----|
D|-6-6-----6-6-----4-4-----2-2-----4-4-----2-2-----6----|
A|-6-6-----4-4-----2-2-----2-2-----2-2-----2-2-----4----|
E|-4-4---------------------0-0-------------0-0----------|


5. Oregon Girl

Intro:
e|----------------|
B|----------------|
G|-9p6-6--9p6-6---|
D|-7-7-7--7-7-7---|
A|-0-0-0--0-0-0---|
E|----------------|

Verse (With Fig. 1):
A, D, F#m x 4 

(Fig. 1)
e|--------------------------|
B|--------------------------|
G|--------------------------|
D|-----2--------------------|
A|---4---4-5-5-4-5----------|
E|-5---------------2-2-2-2--|

A, E/G#, A x 2
(A 2nd guitar arpeggiates an A quietly underneath.
 2nd time round play A, D, E, A x 2 with it)

Bridge:
D, A (With Fig. 2), D, Dm7/F, A (With Fig. 2) x 2
(Leave out the last 'A' 2nd time round)

(Fig. 2) (A)
e|------------9------------|
B|--10-9-10-9---9-10-9-----|
G|---------------------9---|
D|-------------------------|
A|-------------------------|
E|-------------------------|

Chorus:
F#m, C#m, Bm, E

Repeat the above pattern with 
exception to the Intro riff

Outro:
A, D, F#m x 4 


6. House Fire

Intro:
Em, D6, C6, G (F# played by bass) x 4

With:

(Fig. 1) 
   (Em)       (D6)        (C6)           (G)
e|-------7-----7------7-----5-------5------------3--2---|
B|--8------8-------7----7--------5----5-----------------|
G|----9----------7---7---------5---5------4-------------|(Only play from
D|------9------------------------------------5----------| times 3-4)
A|--7----------5------------3---------------------------|
E|----------------------------------------3----3-3------|

Verse:
Em, D6, C6, G x 6

With:

(Fig. 2)
     (Em)          (D)         (C)         (G)
e|-----------------------------------------------------|
B|--8----8-------7----7-------5----5------3----3-------|
G|----9----9-------7----7-------5----5------4----4-----|
D|------9------------7------------5----5------5----5---|
A|--7------------5------------3------------------------|
E|----------------------------------------3------------|

   (Em) (D)  (C)  (G)   (Em) (D)  (C)  (G)                       
e|------------------------------------------------------|
B|--8----7----5----3----*8----7----5-*--3---------------|
G|----0----0----0----0-----0----0----0----0-------------|
D|------------------------------------------(Also x 6)--|
A|--7----5----3----2----*7----5----3-*--2---------------|
E|------------------------------------------------------|

*                                                  *
At this part a second guitar plays: G|--4--7--9--|
instead of the Em, D and C dyads.   D|-----------|
*                                   A|--2--5--7--| *

Bridge:
Em, D6, C6, G x 3
Em, D6, C6, Cmaj7.

At the 3rd "Em, D6, C6, G" a second guitar plays:

(Fig. 3)
e|-------------------------------|
B|-------------------------------|
G|--9-\-4-/-11-\-4-/-12-\-4-/-5--|
D|-------------------------------|
A|--7-\-2-/-9--\-2-/-10-\-2-/-3--|
E|-------------------------------|

Chorus:

(Fig. 4)
    C5 C#5 D5  D#5 E5   G5  B5  A5  G5
e|----5-------7-------7--------7-----------|
B|----5-------7-------8--------7-----------|
G|--5---6---7---8---9---12-----8-----------| (Play 2 times)
D|--5---6---7---8---9---12---9---7---5-----|
A|--3---4---5---6---7---10---9---7---5-----|
E|---------------------------7---5---3-----|

With:

(Fig. 5) Listen for rhythm
      (C)   (D)     (Em)    (B)      (C)    (C)
e|-----8----10------7-7-----7-7-----8--8-----8---|
B|-----8----10------8-8-----7-7-----8--8-----8---|
G|-----9----11------9-9-----8-8-----9--9-----9---|(Also x 2 but the 2nd time
D|----10----12------9-9-----9-9----10-10----10---|move from the 2nd C to C7)
A|----------------8------------------------------|
E|--8-----10---------------7------8--------8-----|

Interlude:
G, B, Em, A, D, Am7(b5)/D#

Verse 2:
Intro x 2 (With Fig. 1)
Verse x 6 (With Fig. 2)

Bridge 2:
Em, D6, C6, G x 3
Em, D6, C6, Cmaj7

With:

(Fig. 6)
e|-------------------------------------------------------|
B|-------------------------------------------------------|
G|-----------------------9-\-4-/-11-\-4-/-12-\-4-/-5-----|
D|--5-/-7-/-9-/-12---------------------------------------|
A|-----------------x-3---7-\-2-/-9--\-2-/-10-\-2-/-3-----|
E|--3-/-5-/-7-/-10---------------------------------------|

Chorus 2:
Same as the 1st Chorus

Interlude 2:
Em, Bm, Am, D, D#dim
G, B, Em, A, D, D#dim

Outro:

(Fig. 7)
e|------7-----------7-----------7----------5p0----|
B|--8-----7-----8-----7-----7-----7---------------|
G|------------------------------------------------|
D|------------------------------------------------|
A|--7-7-----7---6-6-----6---5-5-----5----7--------|
E|-------------------------------------5---5------|

  (* Second guitar plays an open Cmaj7 chord here - x32000)
e|--*----------------------7-----------7----------7------------|
B|------5------------5-----------5-----------5----------5------|
G|----5---5--------5---5-------5---5-------5---5------5---5----|
D|----------5----5---------------------------------------------|
A|--3----------3-----------3-3---------3-3--------3-3----------|
E|--*----------------------------------------------------------|

e|-7----------7----------7------------|
B|-------5----------5----------5------|
G|-----5---5------5---5------5---5----|
D|------------------------------------|
A|-3-3--------3-3--------3-3----------|
E|------------------------------------|

End on G


7. Yr Broom

Intro/Verse:
A, Bm, F#m, E x 2

With:

(Fig. 1)
e|--------------------------------------------------------------0--|
B|------5-------5-------5-------5-------5-------5------------------|
G|----6---6---6---6---6---6---6---6---6---6---6---6--7--6--4--2----|
D|--7-------7-------7-------7-------7-------7----------------------|
A|------------------------------------------------(Also-x-2)-------|
E|-----------------------------------------------------------------|

Chorus (With Fig. 2):
G, F#, B, E x 2

(Fig. 2)
e|-----------------------------------------|
B|---11-12----14---------------------------|
G|---15-16----18--13-13-13-13-13-13-13-----|
D|----------------14-14-14-14-14-14-14-----|
A|-----------------------------------------|
E|-----------------------------------------|

e|---12-11----7--4-----|
B|---14-12----7--5-----|
G|---------------------|
D|---------------------|
A|---------------------|
E|---------------------|

Verse 2:
A, Bm, F#m, E x 2

With:

(Fig. 3)
e|---------------------------------------0-----|
B|--------5-------5-------5--------------------|
G|-----2-------2-------2-----7--6--4--2--------|
D|--4-------4-------4--------------------------|
A|---------------------------------(Also x 2)--|
E|---------------------------------------------|

Chorus 2:
As 1st Chorus

Outro:
A, Bm, F#m, E x 4

With:

(Fig. 4)
e|---------------------------|
B|------------10-------------|
G|---6--------14-x-7---------|
D|---7-x-24------------------|
A|---0-----------(Play-x-2)--|
E|---------------------------|

And:

A 2nd guitar improvises slowly with E, F# & G# notes
on the E string as shown below, until the end of the 
song.

(Fig. 5)
e|--14-12--14-12-16-12---14-12--14-12-16-16-12-12--|
B|-------------------------------------------------|
G|----------------(etc.)---------------------------|
D|----------------------------(Play x 4)-----------|
A|-------------------------------------------------|
E|-------------------------------------------------|


8. Anna Lee

Intro (With Fig. 1):
F#m, F#m, E x 2
F#m

(Fig. 1)
e|-------------------------------------------------------------------|
B|---------5-5--------------3-3--------------------------------------|
G|-----2-2-----2-2------4-4-----4-4---------6-6-------------4-4------|
D|-4-4--------------2-2-----------------4-4-----4-4-----4-4-----4-4--|
A|-----------------------------------5-5-------------5-5-------------|
E|----------------------(Play x 4)-----------------------------------|

And:

After Fig. 1 is played twice, play with it twice:

(Fig. 2)
e|---------------------------------------------------------------------|
B|---------------------------------------------------------------------|
G|--9-----9----9----9----9----9----6----6----6----6----6----6----6-----|
D|----7-----7----7----7----7----7----7----7----7----7----7----7----7---|
A|------9-----9---------7----7---------9----9----9---------9----9------|
E|----------------------------(Play x 2)-------------------------------|

F#m, E, D6 x 2 (With Fig. 1)

Verse:

(Fig. 3)
e|----------9----9------|
B|--9---9-----10---10---|
G|----9---9-------------|Bass plays the root
D|----------------------|notes of the Intro chords
A|--------(Play x 2)----|
E|----------------------|

F#m, E, D6 (With Fig. 1) x 4
D, D6, Dmaj7 (x57779)

Chorus:
A, C#m, D, D6, Dmaj7 x 2
A, C#m, D, Bm

Interlude:

(Fig. 4)
e|----------------|                    e|----------------|
B|--5-h-7--5--5---|                    B|----------------|
G|--4---4--4--6---| or, if you prefer: G|--9-h-11-9-9----|
D|----------------|                    D|--9---9----11---|
A|----------------|                    A|----------------|
E|--(Play x-16)---|                    E|---(Play-x-16)--|

With:

As Fig. 4 is to play for the 
5th time, play with it:

(Fig. 5)
e|-----------------------|
B|-----------------------|
G|---------------9--6b*--|(*Just a quarter bend)
D|-/11-x-------x---------|
A|-------7-x-9-----------|
E|------(Play-x-6)-------|

After Fig. 4 and Fig. 5 have been introduced,
2 octave-based riffs builds it up to the
2nd Verse:

(Fig. 6)
e|----------------------------|
B|----------------------------|
G|--/14\9\4-5-4---------------|
D|---------------(Play x 5)---|
A|--/12\7\2-3-2---------------|
E|----------------------------|

(Fig. 7)
e|------------------------------------------------------------|
B|------------------------------------------------------------|
G|--999999-6-7/999999-11-11/14-14-14-14-13-11-999999-6-7-6----|
D|------------------------------------------------------------|
A|--777777-4-5/777777--9--9/12-12-12-12-11--9-777777-4-5-4----|
E|------------------------------------------------------------|

You will also hear (01.51, 01.57):

(Fig. 8) 
e|--12-----------------------------------|
B|-----14---14---------------------------|
G|-------------14-----16-14----16-14-----|
D|---------------------------------------|
A|---------(Play x 2 where indicated)----|
E|---------------------------------------|

Verse 2:
F#m, E, D6 x 4

After the 2nd time of playing Verse 2,
play with it:

(Fig. 9) 
e|-------------------------------------|
B|-------------------------------------|
G|-------------------------------------|
D|--4/777777/9999999\2222222/4444444---|
A|-------------------xxxxxxx-----------|
E|--2/555555/7777777\0000000/2222222---|

Then:

(Fig. 10)
   (D)               (Dmaj7)
e|--5--5--------------9----------|
B|--7--7----------7-----7---7----|
G|--7----7--7---7---7-----7------|
D|--7----7-----------------------|
A|--5---------5------------------|
E|-------------------------------|

Chorus 2/Outro:
A, C#m, D, D6, Dmaj7 x 2
A, C# 
Bm, C#m, D x 4 (Quietly arpeggiate these chords)


9. Anne Elephant

A# is the barre chord in the E position,
rather than the A position.

Intro:

(Fig. 1)                            (Dm)
e|----------------------------------------------------|
B|----6---6---6---6---6---6---6-----6-6---------------|
G|----7---7---7---7---7---7---7-----7-7---------------|
D|----7---7---7---7---7---7---7-----7-7--(Play-x-2)---|
A|--5-------5-------5-------5-------5-5---------------|
E|------5-------5-------5-------5---------------------|

Dm, A, A#, F, A#, F, E, A x 2

With:

(Fig. 2)
e|-----------------------1-0--5-3-1-0----|
B|----6-5-8-6----------------------------|
G|--7---------3-2-0---3-2----------------|
D|------------------3--------------------|
A|------------------------(Also-x-2)-----|
E|---------------------------------------|

Verse:
Dm, A, A#, F, A#, F, E, A x 4
Dm, A7, A#, F, A#, F, E, A (Slower, softer) x 2

Chorus:
Dm, A, A#, F, A#, F, E, A (With Fig. 2) x 2
Dm, A, A#, F, A#, F, E, A (Without Fig. 2) x 2

Interlude:

(Fig. 3)

   (Dm)
e|--5----------------------------------------------------|
B|--6----------------------------------------------------|
G|--7----------------------------------------------------|
D|--7----------------------------------------------------|
A|--5---------1-----1-0-/5-------1-0---------------------|
E|----5-6\1-0---1-0--------5-6\1-----1-3-0---5--3--1--0--|

And then:

(Fig. 4)

       (Dm)    (A7)   (A#)    (F)       (A#)     (F)
e|----------------3---------------1------------------------|
B|------6---------2-----6---------1------------------1-----|
G|------7-7----2------7-7-7-----2---2-------7--------------|
D|----7---7-----------8---8-----3---3-------8------3---3---|
A|--5--------0----------------------------8---8------------|
E|------------------/6-------\1--------/6--------1---------|

       (E)      (A7)
e|--------0------3----|
B|--------0------2----|
G|------1------2------|(Play x 2, strum the E and
D|----2--------2------|     A7 the 2nd time round)
A|----2------0--------|
E|--0-----------------|

Dm, A, A#, E
Dm, A, A#, F
Dm, A, A#, F, A#, F, E, A x 2

Chorus 2/Outro:
Dm, A, A#, F, A#, F, E, A
Dm, A, A#, F x 2
Dm, A, A#, F, A#, F, E, A x 2

End on strumming Dm, interchanging 
with Dsus2 when necessary.


10. Gwyneth

Intro:
E, A/C# x 8

With:

(Fig. 1) Piano Part 1
e|---------------|
B|--9------------|
G|----9---11-----|(Play from times 5-8)
D|-----------11--|
A|---------------|
E|---------------|

Verse:
E, A/C# x 5

With:

(Fig.2) Piano Part 2
e|-------------------|
B|--19--14--10--9----|
G|-------------------|(Play the 4th time)
D|-------------------|
A|-------------------|
E|-------------------|

E, B

Interlude:
E, A, E/G#, A

With

(Fig. 3) Piano Part 3
e|-------------------------------------------------------------------------|
B|-9-----9--------9-------9--------9--------9---------9-------9--------9---|
G|-----9---9----9---9---9---9----9---9---11---11----9---9---9---9----9---9-|
D|---9-------11-------9-------11-------9---------11-------9-------11-------|
A|-------------------------------------------------------------------------|
E|-------------------------------------------------------------------------|

Verse 2 (With Fig. 2 at the 4th time):
E, A/C# x 5
E, B

Then:

E, A/C#, B, Abm/Eb

With:

(Fig. 4)
e|---------------------------------------|
B|---------------------------------------|
G|---------------------------------------|
D|--9-9-9--6-6-6-6-6--4-4-4--8-8-8-8-8---|
A|--7-7-7--4-4-4-4-4--2-2-2--6-6-6-6-6---|
E|---------------------------------------|

A, Am

With:

(Fig. 5)
   (A)        (Am)
e|---------------------------|
B|---------------------------|
G|--1--2--2------------------|
D|--2--2--4----9--13--18-----|
A|--0--0--0----0---0---0-----|
E|---------------------------|

Chorus:
E, C#m, A x 3

With:

(Fig. 6)
e|----------------------------------|
B|----------------10-9-9-9-9-9-9----|
G|-9-9--6-6-6-6---------------------|
D|-----------------7-6-6-6-6-6-6----|
A|-7-7--4-4-4-4---------------------|
E|----------------------------------|

C#m, F#m, B

(Fig. 7) Piano Part 4
e|----7--------|
B|--9---7------|
G|--------9----|
D|-------------|
A|-------------|
E|-------------|

Verse 2:
E, A/C# x 5
E, B

Outro:
E, C#m, E/G#, A x 8

With:

(Fig. 8) Listen for rhythm
e|-------------------------|
B|--7-------5--------------|
G|-11-------9--------------|
D|----x-5------x-10--------|
A|--9-------7--------------|
E|-------------------------|

________________________________________

| / Slide Up
| \ Slide Down
| h Hammer-on
| p Pull-off
| x Mute Note

Chords:
Bm/F#*     : (224432)
E/G#       : (4221xx)
D#dim      : (x6787x)
D6         : (x57777)
Dm7/F      : (x87565)
Am7(b5)/D# : (xx1213)
Abm/Eb     : (xx1444)
_________________________________________

Tap to rate this tab
# A B C D E F G H I J K L M N O P Q R S T U V W X Y Z