Song name
# A B C D E F G H I J K L M N O P Q R S T U V W X Y Z

Something Corporate - Hurricane tab

acoustic intro


distorion
----------------------------
----------------------------
--------55555---------------
--33333-55555-55555-777-55--
--33333-33333-55555-777-55--
--11111-------33333-555-33--


----------------------------
----------------------------
--------55555---------------
--33333-55555-5-------------
--33333-33333-5-------------
--11111-------3-------------
let last note ring
 
----------------------------------------
----------------------------------------
-----------55555555---------------------
--33333333-55555555-55555555-7777-5555--
--33333333-33333333-55555555-7777-5555--
--11111111----------33333333-5555-3333--
pm     x4

----------------------------------------
----------------------------------------
-----------55555555---------------------
--33333333-55555555-55555555-7777-5555--
--33333333-33333333-55555555-7777-5555--
--11111111----------33333333-5555-3333--
x2

-----------------------------
-----------------------------
--------5--------------------
--3-----5-----5-----7-----5--
--3-----3-----5-----7-----5--
--1-----------3-----5-----3--
let each note ring   x2

-----------------------------------
-----------------------------------
----------555-555------------------
--333-333-555-555-555-555-777-555--
--333-333-333-333-555-555-777-555--
--111-111---------333-333-555-333--
x4

distorion
----------------------------
----------------------------
--------55555---------------
--33333-55555-55555-777-55--
--33333-33333-55555-777-55--
--11111-------33333-555-33--
x2

----------------------------------------
----------------------------------------
-----------55555555---------------------
--33333333-55555555-55555555-7777-5555--
--33333333-33333333-55555555-7777-5555--
--11111111----------33333333-5555-3333--
x2

-----------------------------
-----------------------------
--------5--------------------
--3-----5-----5-----7-----5--
--3-----3-----5-----7-----5--
--1-----------3-----5-----3--
let each note ring   x2


piano 


----------------------------------------
----------------------------------------
-----------55555555---------------------
--33333333-55555555-55555555-7777-5555--
--33333333-33333333-55555555-7777-5555--
--11111111----------33333333-5555-3333--
x4

-----------------------------
-----------------------------
--------5--------------------
--3-----5-----5-----7-----5--
--3-----3-----5-----7-----5--
--1-----------3-----5-----3--
let each note ring   x3
Tap to rate this tab
 
# A B C D E F G H I J K L M N O P Q R S T U V W X Y Z