Guitaretab - guitar tabs
Song name
# A B C D E F G H I J K L M N O P Q R S T U V W X Y Z

Something Corporate - Me And The Moon tab

--------------------------------------------------------------------------
			     Me and the Moon- SOMETHING CORPORATE
--------------------------------------------------------------------------
Tabbed by: Daniella Zeman
Email: totallyjesus@cbgb.net

Tuning: ebgdae

Yes, the guitar tabs for this song are correct but this is the way Andy plays it on 
and it sounds really cool over the guitar chords so if you don't have a pianist never fear- 
should help.
[ Tab from: http://www.guitaretab.com/s/something-corporate/177581.html ]
INTRO: x4
e|----------------------------------------0-------|
B|----2-----2------2-----2------2-----2-----20---|
G|-------4------------4------------4--------------|
D|-4--4-----4--4--4------4--4--4------4--4--44---|
A|------------------------------------------------|
E|-2-----------2------------2---------------------|

e|-------------0---------4--2------2--0------------|
B|----2--0--2-----2------0--0------0--0------------|
G|-2--2--2--2--2--2--2---------2---------2---------|
D|-------------------------------------------------|
A|-0------------------0------------0--0--0---------|
E|------------------------0--0--0------------------|
Related for Me And The Moon tab