Song name
# A B C D E F G H I J K L M N O P Q R S T U V W X Y Z

Something Corporate - Punk Rock Princess Acoustic tab

-----------------------------------------------------------------------------------
	Punk Rock Princess (Acoustic) - Something Corporate
-----------------------------------------------------------------------------------
Tabbed by: Josh Feinberg
Tried to get the general idea from here: http://www.youtube.com/watch?v=79gjlsgfwbI
Probably some errors, but its my first tab

Intro/Verse:
e|--------------------------------------------------------------------------|
B|--------------------------------------------------------------------------|
G|---4444-5555-77777777-----------4444-5555-7777777-------------------------|
D|---xxxx-xxxx-xxxxxxxx-----x9----xxxx-xxxx-xxxxxxx-------------------------|
A|---2222-3333-55555555-----------2222 3333 5555555-------------------------|
E|--------------------------------------------------------------------------|
     ******************

Pre-Chorus (figure out the strumming)
e|-------3-----------------------------------------------------------------|
B|-------3--------1--------------------------------------------------------|
G|-------0--------0--------------------------------------------------------|
D|------ 0--------2--------------------------------------------------------|
A|-------2--------3--------------------------------------------------------|
E|-------3-----------------------------------------------------------------|

Chorus (figure out strumming)
e|------2------3-------2----------------------------------------------------|
B|------3------3-------3----------------------------------------------------|
G|------4------0-------2-------x4 (first time)--x8 (rest)-------------------|
D|------4------0------------------------------------------------------------|
A|------2------2------------------------------------------------------------|
E|-------------3------------------------------------------------------------|

Bridge: 
e|--------------------------------------------------3--------------------|
B|--------------------------------------------------3--------------------|
G|-----9999-99999999----7777-77777777---------------0--x8----------------|
D|-----9999-99999999----7777-77777777-----x2------  2--------------------|
A|-----7777-77777777----5555-55555555---------------3--------------------|
E|-----------------------------------------------------------------------|
            ********         ********
Tap to rate this tab
 
# A B C D E F G H I J K L M N O P Q R S T U V W X Y Z