Song name
# A B C D E F G H I J K L M N O P Q R S T U V W X Y Z

Something Corporate - Konstantine tab

Tabbed by James M
Email: stunninglyhandsomeman@gmail.com

This version uses drop D and helps make the arpeggiation easier in the verses.  I
this from a piano tutorial as closely as possible, give or take an octave in some parts.
wise it is pretty much eighth notes with no rests in the verses.  The chorus goes 1 and 
on 2) and 3 and (rest on 4) and....etc.  Not too hard really and a great melodic song.

Tuning:  D A D G B E

Intro/Verse
E[--------------------------------------------------------------------------|
B[--------------------------------------------------------------------------|
G[--------------------------------------------------------------------------|
D[------8-----8---8-----8-----8---8-----7-----7---7-----7-----8---8---------|
A[----8-----8---------8-----8---------8-----8---------8-----8---------------|
D[--8-----8-----8---8-----8-----8---0-----0-----0---0-----0-----0-----------|

    1 & 2 & 3 & 4 & 1 & 2 & 3 & 4 & 1 & 2 & 3 & 4 & 1 & 2 & 3 & 4 &

E[--------------------------------------------------------------------------|
B[--------------------------------------------------------------------------|
G[--------------------------------------3-----3---3-----3-----2-------------|
D[------8-----8---8-----8-----8---8---3-----3---------3-----3-----3---------|
A[----8-----8---------8-----8-----------------------------------------------|
D[--5-----5-----5---5-----5-----5---1-----1-----1---1-----1-----1-----------|

    1 & 2 & 3 & 4 & 1 & 2 & 3 & 4 & 1 & 2 & 3 & 4 & 1 & 2 & 3 & 4 &

E[--------------------------------------------------------------------------|
B[--------------------------------------------------------------------------|
G[--------------------------------------------------------------------------|
D[------8-----8---8-----8-----8---8-----7-----7---7-----7-----8---8---------|
A[----8-----8---------8-----8---------8-----8---------8-----8---------------|
D[--8-----8-----8---8-----8-----8---0-----0-----0---0-----0-----0-----------|

    1 & 2 & 3 & 4 & 1 & 2 & 3 & 4 & 1 & 2 & 3 & 4 & 1 & 2 & 3 & 4 &

E[--------------------------------------------------------------------------|
B[--------------------------------------------------------------------------|
G[--------------------------------------2-----3---3-----3-----2-------------|
D[------7-----8---8-----7-----8---8---3-----3---------3-----3-----3---------|
A[----8-----8---------8-----8-----------------------------------------------|
D[--5-----5-----5---5-----5-----5---1-----1-----1---1-----1-----1-----------|
   (^slight change from first part) (^ here too)
    1 & 2 & 3 & 4 & 1 & 2 & 3 & 4 & 1 & 2 & 3 & 4 & 1 & 2 & 3 & 4 &

Chorus (..and then you take me home...)
E[----------------------------------|
B[----------------------------------|
G[--3-------3-------3-------3---2---|    X3
D[--3-------3-------3-------3---3---|
A[--------------------------1---0---|
D[--0-0---0-1-1---1-3-3---3---------|

    1 & 2 & 3 & 4 & 1 & 2 & 3 & 4

E[----------------------------------|
B[----------------------------------|
G[------------------5-------2-------|
D[--3-------1-------5-------2-------|
A[--3-------1-------3-------0-------|
D[--3-------1-----------------------|

    1 & 2 & 3 & 4 & 1 & 2 & 3 & 4

will had bridge riffs and little outro later.
Tap to rate this tab
# A B C D E F G H I J K L M N O P Q R S T U V W X Y Z