Song name
# A B C D E F G H I J K L M N O P Q R S T U V W X Y Z

Something Corporate - Cavanaugh Park tab

Intro:
eb|----------------------------------------|
Bb|-1------1--------1-----1--------1--1----|
Gb|-0---0--0------0---0---0------0----0----|
Db|-2----- 3--------------2---2-------3----|
Ab|----------------------------------------|
Eb|----------------------------------------|

Main Riff:
eb|-------------------------------------------------3--------3----|
Bb|-1---------1-----1---------1-----1--------1-------------1----1-|
Gb|--------0----0----------0-----0--------0-----0---0---0---------|
Db|-2---2-----------3---3-----------2--2--------------------------|
Ab|---------------------------------------------------------------|
Eb|---------------------------------------------------------------|

Bridge Riff:
eb|-3--1--0-----------3--1--0-------0------------------------3--1--0-----0----|
Bb|-----------3------------------3------3--1--1-1h3--1----------------3-----3-|
Gb|------------------------------0------------------------------------0-------|
Db|-2---------3-------2--------------------2---------3-------2----------------|
Ab|---------------------------------------------------------------------------|
Eb|---------------------------------------------------------------------------|

Chorus Riff:
eb|---------------------------------------|
Bb|---------------------------------------|
Gb|-5-------------------------------------|
Db|-5----5----7----2----3----3----5----5--|
Ab|-3----5----7----2----3----3----5----5--|
Eb|------3----5----0----1----1----3----3--|

Song:
Intro x1
Main x2
Bridge x1
Main x4
Bridge x1
Main x4
Chorus x2
Bridge x1
Main x4
Chorus x2
Bridge x1
Main x4
Chorus till end
Tap to rate this tab
 
# A B C D E F G H I J K L M N O P Q R S T U V W X Y Z