Song name
# A B C D E F G H I J K L M N O P Q R S T U V W X Y Z

Something Corporate - Konstantine tab

     S S S S S S S S S S S S S S S S    S S S S S S S S S S S S S S S S  
E||----------------------------------|----------------------------------|
B||----------------------------------|----------------------------------|
G||------3-----3-----3---3-----3---3-|------2-----2---------2-----3---3-|
D||----3-----3-----3---3-----3-------|----3-----3-----3---3-----3-------|
A||--1-----1-----1---------1-----1---|----------------------------------|
D||----------------------------------|--0-----0-----0---0-----0-----0---|
 
 
  S S S S S S S S S S S S S S S S    S S S S S S S S S S S S S S S S  
----------------------------------|----------------------------------|
----------------------------------|----------------------------------|
------3-----3---3-----3-----3---3-|------3-----3---3-----3-----2---3-|
----5-----5---------5-----5-------|----3-----3---------3-----3-------|
----------------------------------|----------------------------------|
--5-----5-----5---5-----5-----5---|--1-----1-----1---1-----1-----3---|
 
 
  S S S S S S S S S S S S S S S S    S S S S S S S S S S S S S S S S  
----------------------------------|----------------------------------|
----------------------------------|----------------------------------|
------3-----3-----3---3-----3---3-|------2-----2---------2-----3---3-|
----3-----3-----3---3-----3-------|----3-----3-----3---3-----3-------|
--1-----1-----1---------1-----1---|----------------------------------|
----------------------------------|--0-----0-----0---0-----0-----0---|
 
 
  S S S S S S S S S S S S S S S S    S S S S S S S S S S S S S S S S        
----------------------------------|----------------------------------|----||
----------------------------------|----------------------------------|----||
------2-----3---3-----2-----3---3-|------2-----3---3-----3-----3---3-|----||
----5-----5---------5-----5-------|----3-----3---------3-----3-------|----||
----------------------------------|----------------------------------|----||
--5-----5-----5---5-----5-----5---|--1-----1-----1---1-----1-----3---|----||
Tap to rate this tab
# A B C D E F G H I J K L M N O P Q R S T U V W X Y Z