Song name
# A B C D E F G H I J K L M N O P Q R S T U V W X Y Z

Something Corporate - Konstantine tab

Help us improve GuitareTab! Take a short survey!
----------------------------------------------------------------------------
			     KONSTANTINE - Something Corporate
----------------------------------------------------------------------------
Tabbed by:  Jon Wong
Email: jonwong55@hotmail.com

Tuning: D-A-D-Bb-Bb-F

This version of Konstantine is specifically designed to mimic how the piece sounds with 
piano.  That's why the tuning is non-standard.  It's a bit of a hassle to change the 
but I think if you follow this tab, you'll get the best sound.  Comments would be welcome.

Intro/Verse
F |----0----7or0-0----0----------------------------------------------------|
Bb|----0----7----0----0----------------------------------------------------|
Bb|----0----7----0----0----------------------------------------------------|
D |----3----7----5----1----------------------------------------------------|
A |----1----8----5----1----------------------------------------------------|
D |----x----0----5----1----------------------------------------------------|

Chorus x 3                ...then
F |----0----0----0----0--|--0----0----0----0-------------------------------|
Bb|----0----0----0----0--|--0----0----0----0-------------------------------|
Bb|----0----0----0----0--|--0----0----0----0-------------------------------|
D |----0----1----3----0--|--0----5----1----3-------------------------------|
A |----1----1----3----1--|--0----5----1----3-------------------------------|
D |----0----1----3----x--|--x----5----1----3-------------------------------|

Final Chorus x 5          ...then
F |----0----0----0----0--|--0----0----0----0-------------------------------|
Bb|----0----0----0----0--|--0----0----0----0-------------------------------|
Bb|----0----0----0----0--|--0----0----0----0-------------------------------|
D |----0----1----3----0--|--0----5----1----3-------------------------------|
A |----1----1----3----1--|--0----5----1----3-------------------------------|
D |----0----1----3----x--|--x----5----1----3-------------------------------|

(I said does anybody need that room...)
F |----0----0----0----0----0----0----0----0----0----0----------------------|
Bb|----0----0----0----0----0----0----0----0----0----0----------------------|
Bb|----0----0----0----0----0----0----0----0----0----0----------------------|
D |----0----1----3----5----1----3----0----1----3----3----------------------|
A |----5----1----3----5----1----3----1----1----3----1----------------------|
D |----0----1----3----5----1----3----0----1----3----0----------------------|

Yup.  There it is.  Just listen for the chord changes and follow the song.  Have fun.  
careful about the G-string since you have to tune it up to a Bb.  It hasn't snapped on me 
but I have a feeling it could very easily happen.  Have fun.

| /  slide up
| \  slide down
| h  hammer-on
| p  pull-off
| ~  vibrato
| +  harmonic
| x  Mute note
============================================================================
Related for Konstantine tab