Song name
# A B C D E F G H I J K L M N O P Q R S T U V W X Y Z

Something Corporate - Cavanaugh Park tab

Something Corporate
Cavanaugh Park
Tuning: Standard in flat (Down half step)

Piano arranged for guitar.


Intro:

|--------------------------|
|--1---------1----------1--|
|--0------0--0-------0-----| x2
|--2----2----3----3--------|
|--------------------------|
|--0---------1-------------|


|---------------------------------------------------|
|--1-----1-----1-----1-----1-----1-----0------------|
|----0-----0-----0-----0-----0-----0-----0---0---0--|
|------2-----2-----3-----3-----2-----2-----0---0----| x2
|---------------------------------------------------|
|--0-----------1-----------0-----------3------------|


|--3---1---0----------------|
|--------------1------------|
|----0---0---0---0-------0--|
|--------------------3------|
|------------------3---3----|
|--0-----------1------------|


|--3---1---0-------0--------|
|--------------3-------3p1--|
|----0---0---0---0---0------|
|---------------------------|
|---------------------------|
|--0-----------3------------|


|---------------------------|
|--1-------1h3-1------------|
|----0---0-------0-------0--|
|------2-------------3------|
|------------------3---3----|
|--0-----------1------------|


|--3---1---0-------0------|
|--------------3-------1--|
|----0---0---0---0---0----|
|-------------------------|
|-------------------------|
|--0-----------3----------|


Verse:

|---------------------------------------------------|
|--1-----1-----1-----1-----1-----1-----0-----0------|
|----0-----0-----0-----0-----0-----0-----0-----0----|
|------2-----2-----3-----3-----2-----2-----0-----0--| x3
|---------------------------------------------------|
|--0-----------1-----------0-----------3------------|



|---------------------------------------------------|
|--1-----1-----1-----1-----1-----1-----0------------|
|----0-----0-----0-----0-----0-----0----------------|
|------2-----2-----3-----3-----2-----2--------------|
|---------------------------------------------------|
|--0-----------1-----------0-----------3------------|



|------3---1---0---------------|
|----1-------------1-----------|
|--0-----0---0---0---0-------0-|
|------------------------3-----|
|----------------------3---3---|
|------0-----------1-----------|


|--3---1---0-------0--------|
|--------------3-------3p1--|
|----0---0---0---0---0------|
|---------------------------|
|---------------------------|
|--0-----------3------------|


|---------------------------|
|--1-------1h3-1------------|
|----0---0-------0-------0--|
|------2-------------3------|
|------------------3---3----|
|--0-----------1------------|


|--3---1---0----------------|
|--------------3---1---0----|
|----0---0---0---0---0---0--|
|---------------------------|
|---------------------------|
|--0-----------3------------|

|---------------------------------------------------|
|--1-----1-----1-----1-----1-----1-----0-----0------|
|----0-----0-----0-----0-----0-----0-----0-----0----|
|------2-----2-----3-----3-----2-----2-----0-----0--| x4
|---------------------------------------------------|
|--0-----------1-----------0-----------3------------|


Chorus:

|-----------------------------------------|
|--------------------------------------3--|
|--5------------2----------------------2--|
|--5-----5------2-----2-----3----------0--| x2
|--3-----5------0-----2-----3-------------|
|--------3------------0-----1-------------|

|--3---1---0---------------|
|--------------1-----------|
|----0---0---0---0-------0-|
|--------------------3-----|
|------------------3---3---|
|--0-----------1-----------|


|--3---1---0-------0--------|
|--------------3-------3p1--|
|----0---0---0---0---0------|
|---------------------------|
|---------------------------|
|--0-----------3------------|


|---------------------------|
|--1-------1h3-1------------|
|----0---0-------0-------0--|
|------2-------------3------|
|------------------3---3----|
|--0-----------1------------|


|--3---1---0----------------|
|--------------3---1---0----|
|----0---0---0---0---0------|
|---------------------------|
|---------------------------|
|--0-----------3------------|


Back to verse.


Then chorus.


The very last verse is weird.
The very first note in the 2nd
and 4th measures goes lower than
the tuning allows, so I suggest this.
It's not completely correct,
considering it's missing the bass note,
but I think it sounds ok.

|--------------------|
|--1-----1-----3-----|
|--0-----0-----0-----|
|--2-----3-----0-----|
|--------------------|
|--0-----1-----3-----|

|--------------------|
|--1-----1-----1-----|
|--2-----0-----0-----|
|--0-----2-----3-----|
|--------------------|
|--------0-----1-----|

|--------------------|
|--1-----1-----3-----|
|--0-----0-----0-----|
|--2-----3-----0-----|
|--------------------|
|--0-----1-----3-----|

|--------------------|
|--1-----1-----1-----|
|--2-----0-----0-----|
|--0-----2-----3-----|
|--------------------|
|--------0-----1-----|


|--------------------------|
|--1-----1-----1-----3-----|
|--0-----0-----0-----0-----|
|--2-----3-----2-----0-----| x4
|--------------------------|
|--0-----1-----0-----3-----|

Final chorus:

|-----------------------------------------|
|--------------------------------------3--|
|--5------------2----------------------2--|
|--5-----5------2-----2-----3----------0--|
|--3-----5------0-----2-----3-------------|
|--------3------------0-----1-------------|

|-----------------------------------------|
|-----------------------------------------|
|--5------------2-------------------------|
|--5-----5------2-----2-----3----------5--|
|--3-----5------0-----2-----3----------5--|
|--------3------------0-----1----------3--|

|-----------------------------------------|
|--------------------------------------3--|
|--5------------2----------------------2--|
|--5-----5------2-----2-----3----------0--| x2
|--3-----5------0-----2-----3-------------|
|--------3------------0-----1-------------|




Outro:

|--------------------|
|--1-----1-----3-----|
|--0-----0-----0-----|
|--2-----3-----0-----|
|--------------------|
|--0-----1-----3-----|

|--------------------|
|--1-----1-----1-----|
|--2-----0-----0-----|
|--0-----2-----3-----|
|--------------------|
|--------0-----1-----|

|--------------------|
|--1-----1-----3-----|
|--0-----0-----0-----|
|--2-----3-----0-----|
|--------------------|
|--0-----1-----3-----|

|--------------------|
|--1-----1-----1-----|
|--2-----0-----0-----|
|--0-----2-----3-----|
|--------------------|
|--------0-----1-----|
Tap to rate this tab
# A B C D E F G H I J K L M N O P Q R S T U V W X Y Z