Guitaretab - guitar tabs
Song name
# A B C D E F G H I J K L M N O P Q R S T U V W X Y Z

Something Corporate - Cavanaugh Park tab

-------------------------------------------------------------------------------
			     Cavanaugh Park  Something Corporate
-------------------------------------------------------------------------------
Tabbed by: Mr. Chunnerz
Email: epc5163@hotmail.com

Tuning: Standard (Piano Finger Picking)

Intro
				              Main Riff
e|---------------------------------------X----------------------------------------|
B|---1----1------------- 1---   1-----1--X------1-------1-------1-----0-0-0-0-----|
G|---0----2--------------- 0-   0-----2--X-----0-0-----2-2-----2-2----0-0-0-0-----|
D|---2----3----------------     2-----3--X---2----2- 3----3-- 2---2---2-2-2-2-----|
A|-3------3------------3--     3----  3--X---3------ 3------- 0-------2-2-2-2-----|
E|-----3--1-LetItRing  -------     3--1--X---------- 1----------------------------|
    C     F                    C      F     C       F        Am      Em
[ Tab from: http://www.guitaretab.com/s/something-corporate/45926.html ]
e|--------------------------------------------3--1--0----------3--1--0---------|
B|----1--------1------1---  0--0-0-0-------------------3----------------3------|
G|---0-0-----2--2----2-2--  0--0-0-0----0--2--------------0--2-----------------|
D|-2----2--3-----3--2---2-- 0--0-0-0-------------------------------------------|
A|-3-------3--------0-----  2--2-2-2-------------------------------------------|
E|---------1--------------  3--3-3-3-------------------------------------------|

   C       F        Am      G

e|-0--1-----0-------------------3--1--0---------3--1-----0--1-------0----------|
B|------1-1---1---- 0------------------3--------------3---------1-1--1---0-----|
G|------2-------2-- 0-----0--2------------0--2------------------2-----2--0-----|
D|------2---------- 0-------------------------------------------2--------2-----|
A|------0---------- 2-------------------------------------------0--------2-----|
E|----------------- 3----------------------------------------------------------|

	Am           G

Repeat Main Riff
Related for Cavanaugh Park tab