Guitaretab - guitar tabs
Song name
# A B C D E F G H I J K L M N O P Q R S T U V W X Y Z

Something Corporate - Globes And Maps tab

Verse

The verse pretty much is these chords, you can pick around with them or just play
them, either way it sounds good. 

e|----1---------------3-----1--------3--3----------------------------------|
B|----1------1-----1--0-----1-----1--0----0---1---3------------------------|
G|----2------0-----2--0-----2-----0--0--------0---0------------------------|
D|----3------2-----2--0-----3-----2--0--------0---0------------------------|
A|----3------3---0----2-----3-----3--2--------2---2------------------------|
E|-1--1---0-----------3--1--1---0----3--------3---3------------------------|
[ Tab from: http://www.guitaretab.com/s/something-corporate/50173.html ]
e|-----1-----------------------------3--3----------------------------------|
B|-----1------1----------1-------1---0----0---1---3------------------------|
G|-----2------0----3-----2---3---2---0--------0---0------------------------|
D|-----3------2----3-----2---3---2---0--------0---0------------------------|
A|-----3------3----1---------1-------2--------2---2------------------------|
E|--1--1---0-------------------------3--------3---3------------------------|

Chorus

You can either pick or strum the chorus, whatever. 
      
e|--------------3----------------------------------------------------------|
B|---1-----1----3----1---3-------------------------------------------------|
G|---0-----0----0----0---0-------------------------------------------------|
D|---2-----2----0----0---0------x3-----------------------------------------|
A|---3----------2----2---2-------------------------------------------------|
E|--------------3----3---3-------------------------------------------------|

Bridge

e|-----------------1----1--------------------------------------------------|
B|--1----1----1----1----3--------------------------------------------------|
G|--2---------0----2----2--------------------------------------------------|
D|--2----2----2----3----0---------x2---------------------------------------|
A|-------2----3----3-------------------------------------------------------|
E|-----------------1-------------------------------------------------------|

The outro is the chorus, cept its picked.
Related for Globes And Maps tab
Advertisement will be closed in 10 seconds