Song name
# A B C D E F G H I J K L M N O P Q R S T U V W X Y Z

Something Corporate - Watch The Sky tab

-----------------------------------------------------------------------------
			Watch the Sky - Something Corporate
-----------------------------------------------------------------------------

Tuning:Standard

Piano Riff
e|---4-2---2--------------------4-2---2---------|
B|-----------4-4--4h5p4p2-2-0-----------4---4-5-|
G|----------------------------------------------|
D|----------------------------------------------|
A|----------------------------------------2-----|
E|-4-----0--------------------4-----0-----------|

Intro/Verse(palm mute in verse)
e|---------------------------------|
B|---------------------------------|
G|-----------------4-4-4-4-4-4-4-4-|
D|-6-6-6-6-2-2-2-2-4-4-4-4-4-4-4-4-|
A|-6-6-6-6-2-2-2-2-2-2-2-2-2-2-2-2-|
E|-4-4-4-4-0-0-0-0-----------------|

Chorus
e|-----------------------------------------------------------------|
B|-----------------------------------------------------------------|
G|-------------------------------------------------4-4-4-4-4-4-4-4-|
D|-6-6-6-6-6-6-6-6-2-2-2-2-2-2-2-2-4-4-4-4-4-4-4-4-4-4-4-4-4-4-4-4-|
A|-6-6-6-6-6-6-6-6-2-2-2-2-2-2-2-2-4-4-4-4-4-4-4-4-2-2-2-2-2-2-2-2-|
E|-4-4-4-4-4-4-4-4-0-0-0-0-0-0-0-0-2-2-2-2-2-2-2-2-----------------|

Bridge
e|---------------------|
B|---------------------|
G|------------4--------|
D|-6----2-----4--------|
A|-6----2-----2--------|
E|-4----0--------------|
Tap to rate this tab
 
# A B C D E F G H I J K L M N O P Q R S T U V W X Y Z