Song name
# A B C D E F G H I J K L M N O P Q R S T U V W X Y Z

Something Corporate - She Paints Me Blue tab

Intro/verse: play around with the picking
1:-----------------------------------------------------------------------|
2:-----------------------------------------------------------------------|
3:---------5-------------------------------------------------------------|
4:----- 5--------------7--------------5------3---------------------------|
5:---3-------------7-------------5--------3------------------------------|
6:--------------5-------------3---------1--------------------------------|

Chorus:

1:-----------------------------------------------------------------|
2:-----------------------------------------------------------------|
3:---5-------------------------------------------------------------|
4:---5----------7------------5------3------------------------------|
5:---3----------7------------5------3------------------------------|
6:--------------5------------3------1------------------------------|
Tap to rate this tab
 
# A B C D E F G H I J K L M N O P Q R S T U V W X Y Z