Song name
# A B C D E F G H I J K L M N O P Q R S T U V W X Y Z

Something Corporate - Not What It Seems tab

Strings solo

E||---------------|-------------------|--
A||---------------|-------------------|--
G||---------------|-------------------|--
D||6---8---9--8---|----6---8---9---13-|--
A||---------------|-------------------|--
e||---------------|-------------------|--


At the end solo
E||-----------2---|----------2---|-----------2----------|--
A||------------2--|-----------2--|-------------2--------|--
G||---------------|--------------|----------------------|--
D||6---6----------|-6---6--------|-6---6----------6---6-|--
A||---------------|--------------|----------------------|--
e||---------------|--------------|----------------------|--

hope you enjoy!
*~Maria~*
Tap to rate this tab
 
# A B C D E F G H I J K L M N O P Q R S T U V W X Y Z