Song name
# A B C D E F G H I J K L M N O P Q R S T U V W X Y Z

Something Corporate - I Want To Save You Acoustic tab

Something Corporate - I want to save you (acoustic)
Tabbed by: Corbin Fraser

None of the tabs I saw looked accurate with the song I had, so here's my jot notes of 
song. Below are the fills, insert those little licks into the correct spot of the song 
by either [Fill 1] [Fill 2] or [Solo Fill]


fill 1

--------------------------------------|
--------------------------------------|
-5-5-5-5-7-7-7-7-8-8-8-8-10-10-10-10--|
--------------------------------------|
--------------------------------------|
--------------------------------------|

Fill 2

--------------------------------------|
--------------------------------------|
-5-5-5-5-7-7-7-7-8-8-8-8--------------|
--------------------------------------|
--------------------------------------|
--------------------------------------|

Solo Fill

-------------------------|
-------------------------|
-5-5-5-5-7-7-7-7-8-8-8-8-|
-------------------------|
-------------------------|
-------------------------|

--------------------------------|
--------------------------------|
7-8-8-7-8-8-7-8-8-7-8-8 7-8-8-7-|
--------------------------------|
--------------------------------|
--------------------------------|

--------------------------------------|
--------------------------------------|
-5-5-5-5-7-7-7-7-8-8-8-8-10-10-10-10--|
--------------------------------------|
--------------------------------------|
--------------------------------------|

--------------------------------|
--------------------------------|
7-8-8-7-8-8-7-8-8-7-8-8 7-8-8-7-|
--------------------------------|
--------------------------------|
--------------------------------|

-----------------------------------------|
-----------------------------------------|
-5-5-5-5-7-7-7-7-8-8-8-8-10-10-10-10-12~-| let ring
-----------------------------------------|
-----------------------------------------|
-----------------------------------------|

Eb		Ab
standing on the edge of morning
Eb		Ab
scent of sex and new found glory
Eb		Ab          Eb		Ab
playing as she's pulling back her hair
Eb
she drives away
      Ab
she's feeling worthless
Eb		Ab
used again but nothing's different
Eb
she'd stay the night
     Ab		Eb		Ab
but knows he doesn't care


Eb
home by three
Ab
deafening quiet
Eb
the porch light's off
Ab
yes they forgot it
Eb      	    Ab
she'd cry herself to sleep
	Eb		Ab
but she don't dare


Cm (add palm mutes) [FILL 1] Cm
and she wants to be a model
	  Eb		Ab
she wants to hear she's beautiful
F
she's beautiful


Eb     Cm  Bb  [FILL 2]
i want to save you
Eb     Cm  Bb  [FILL 2]
i want to save you
Eb     Cm
i need you
Bb
save me too
Eb     Cm  Bb [FILL 2]
i want to save you


Eb		    Ab
dressed by dawn and out the door
Eb
no light
            Ab
she memorized the floor
      Eb              Ab            Eb	   Ab
so she could leave without being detected
Eb
she works till three
Ab
it's uniform
	Eb		   Ab
she dreams that he'll come by the store
     Eb
she prays for days
     Ab		     Eb	        Ab
when boys mean she's protected

Cm (add palm mutes) [FILL 1] Cm
and she wants someone to see her
	  Eb		Ab
she needs to hear she's beautiful
F
she's beautiful

Eb     Cm  Bb  [FILL 2]
i want to save you
Eb     Cm  Bb  [FILL 2]
i want to save you
Eb     Cm
i need you
Bb
save me too
Eb     Cm  Bb [SOLO FILL]  Cm
i want to save you


Bb	       Ab.
and she won't sleep
...........
she won't sleep
Cm    Bb       Ab
and she won't sleep
   Bb	Ab
at all

Eb     Cm  Bb  [FILL 2]
i want to save you
Eb     Cm  Bb  [FILL 2]
i want to save you
Eb     Cm
i need you
Bb
save me too
Eb     Cm  Bb [FILL 2]
i want to save you

[use same notes as above]
Let Me Save You
I wanna Save You

End on Cm
Tap to rate this tab
 
# A B C D E F G H I J K L M N O P Q R S T U V W X Y Z