Song name
# A B C D E F G H I J K L M N O P Q R S T U V W X Y Z

Something Corporate - Space Acoustic tab

This is a direct tab from watching the acoustic performance video, and just knowing the 
match as well.

WHEN you see just single chords in the tab (which i promise are 100% CORRECT), you'll 
to ]figure out how to do the strumming which is as simple as can be really.

Verse 1
e|---------|
B|---------|
G|---------|
D|--9-12-7-|
A|--9-12-7-|
E|--7-10-5-|
PM...

Chorus
e|------------------|
B|------------------|
G|--------9---9-7---|
D|--7-9-5-9-5-9-7-7-|
A|--7-9-5-7-5-7-5-7-|
E|--5-7-3---3-----5-|

Verse 2- Repeat Verse 1 but leave open on last time through

Chorus-2X

Bridge-2x
e|--------------------------------------------------|
B|--------------------------------------------------|
G|--------------------------------------------7---7-|
D|--0-0-0--0-0-0--0-0---0-0-0--0-0-0--0-0--0--7-7-7-|
A|--0-0-10-0-0-10-0-10--0-0-10-0-0-10-0-10-0--5-7-5-|
E|--0-0-0--0-0-0--0-0---0-0-0--0-0-0--0-0--0----5---|

Bridge Ending
e|------------------------------------------------|
B|------------------------------------------------|
G|--------------------------------------------7---|
D|--0-0-0--0-0-0--0-0---0-0-0--0-0-0--0-0--0--7-7-|
A|--0-0-10-0-0-10-0-10--0-0-10-0-0-10-0-10-0--5-7-|
E|--0-0-0--0-0-0--0-0---0-0-0--0-0-0--0-0--0----5-|

Chorus-2X
Tap to rate this tab
 
# A B C D E F G H I J K L M N O P Q R S T U V W X Y Z