Song name
# A B C D E F G H I J K L M N O P Q R S T U V W X Y Z

Something For Kate - Anarchitect tab

Help us improve GuitareTab! Take a short survey!
Anarchitect - Something For Kate


E---||----------------0----||-------------------------------------------|
B---||---------/5p0--------||-------------------------------------------|
G---||*-------------------*||-------------------------------------------|
D---||*-------------------*||-------------------------------------------|
A---||---------------------||-------------------------------------------|
E---||---------------------||-------------------------------------------|

E---0-------0-----0-----------0-----------5-----------5---|-------|-----|
B---5h6p5---5h6---5-------0-----------0-----------0-------|---4---|-----|
G---------------------5-----------4-----------0-----------|---4---|-----|
D---------------------------------------------------------|---4---|-----|
A---------------------------------------------------------|---2---|-----|
E---------------------------------------------------------|-------|-----|

E--------||---2---|---3--------||---------------------------------------|
B---5----||---4---|---4--------||---------------------------------------|
G---4---*||---4---|---4-------*||---------------------------------------|
D---4---*||---4---|---4-------*||---------------------------------------|
A---2----||-------|------------||---------------------------------------|
E--------||-------|------------||---------------------------------------|

E---||------------------------------------------------------------------|
B---||------------------------------------------------------------------|
G---||*---12---12---12---------------11---11---11---------------9-------|
D---||*-----------------------------------------------------------------|
A---||----10---10---10---------------9----9----9----------------7-------|
E---||-------------------0---0---0------------------0---0---0-----------|

E-----------|-------|--------||-----------------------------------------|
B-----------|---4---|---5----||-----------------------------------------|
G---9---9---|---4---|---4---*||-----------------------------------------|
D-----------|---4---|---4---*||-----------------------------------------|
A---7---7---|---2---|---2----||-----------------------------------------|
E-----------|-------|--------||-----------------------------------------|

E---||------------3-----------|-----------------------------------------|
B---||--------1---------------|-----------------------------------------|
G---||*-----------------------|-----------------------------------------|
D---||*---3-----------2---3---|-----------------------------------------|
A---||------------------------|-----------------------------------------|
E---||------------------------|-----------------------------------------|

E---------------0-------------------3---------|-------------------------|
B-----------0-------0-----------1-------------|-------------------------|
G-------0---------------0---------------------|-------------------------|
D---2-----------------------3-----------2---3/|-------------------------|
A---------------------------------------------|-------------------------|
E---------------------------------------------|-------------------------|


                        sometimes ...
E-------7---5------------||---------------------------|-----------------|
B-------5-------5--------||-----------6-------6-------|-----------------|
G-----------------------*||-------7-------7-------7---|-----------------|
D---7---------------7---*||---8-----------------------|-----------------|
A------------------------||---------------------------|-----------------|
E------------------------||---------------------------|-----------------|

E---------------------------|---------------------------|---------------|
B-----------5-------5-------|-----------6-------6-------|---------------|
G-------6-------6-------6---|-------7-------7-------7---|---------------|
D---7-----------------------|---8-----------------------|---------------|
A---------------------------|---------------------------|---------------|
E---------------------------|---------------------------|---------------|

E----------------------------||-------||----1---|---0---|---1---|-------|
B-----------5-------5--------||-------||----1---|---0---|---1---|-------|
G-------6-------6-------6---*||-------||*---2---|---1---|---2---|-------|
D---7-----------------------*||-------||*---3---|---2---|---3---|-------|
A----------------------------||-------||----3---|---2---|---3---|-------|
E----------------------------||-------||----1---|---0---|---1---|-------|

E------------||---------------------------------------------------------|
B------------||---------------------------------------------------------|
G---6---7---*||---------------------------------------------------------|
D---7-------*||---------------------------------------------------------|
A---4--------||---------------------------------------------------------|
E---5--------||---------------------------------------------------------|
Related for Anarchitect tab