Song name
# A B C D E F G H I J K L M N O P Q R S T U V W X Y Z

Something For Kate - Dean Martin tab

Dean Martin by Something For Kate
(single)


Intro/Verse:

Below I've listed the chords and the approximate strumming and chord
variations that I think are played. It's boring to play just chords so
improvise with the chords and strumming to something you're comfortable
with.

   E    G   Dsus2   Asus        E    G   Dsus2   Cadd9
e-0-0--3-3--0--3-0--0--0-0-0-|-0-0--3-3--0--3-0--0--0-0-0-|
B-0-0--3-3--3--3-3--3--0-3-0-|-0-0--3-3--3--3-3--3--0-3-0-|
G-1-1--0-0--2--2-2--2--2-2-2-|-1-1--0-0--2--2-2--0--0-0-0-|
D-2-2--0-0--0--0-0--2--2-2-2-|-2-2--0-0--0--0-0--2--2-2-2-|
A-2-2--2-2----------0--0-0-0-|-2-2--2-2----------3--3-3-3-|
E-0-0--3-3-------------------|-0-0--3-3-------------------|

Prechorus chords:

I've only listed the chords so improvise accordingly to improve the sound.

e-0----0----0----3----0----0-|
B-3----3----0----3----3----3-|
G-2----0----1----0----2----0-|
D-2----2----2----0----0----2-|
A-0----3----2----2---------3-|
E-----------0----3-----------|

Chorus:

     E5      D5   B5 G5        B5                 D#5
e-------------------------|---------------------------------|
B-------------------------|---------------------------------|
G-9-9-9-9-7-7-7-7---------|-4-4-4-4-4-4-4-4-8-8-8-8-8-8-8-8-|
D-9-9-9-9-7-7-7-7-9\5-5-5-|-4-4-4-4-4-4-4-4-8-8-8-8-8-8-8-8-|
A-7-7-7-7-5-5-5-5-9\5-5-5-|-2-2-2-2-2-2-2-2-6-6-6-6-6-6-6-6-|
E-----------------7\3-3-3-|---------------------------------|

Bridge/Solo:

     D5      C5    E5  G5
e-----------------------------------|
B-----------------------------------|
G-7-7-7-7-5-5-5-5-9-9-12-12-7-7-9-9-|   x2
D-7-7-7-7-5-5-5-5-9-9-12-12-7-7-9-9-|
A-5-5-5-5-3-3-3-3-7-7-10-10-5-5-7-7-|
E-----------------------------------|

e-------------------------------------------------|
B-------------------------------------------------|
G-7-7-7-7-5-5-5-5-7-7-7-7-9-9-9-9-7-7-7-7-0-0-0-0-|
D-7-7-7-7-5-5-5-5---------------------------------|
A-5-5-5-5-3-3-3-3---------------------------------|
E-------------------------------------------------|

Song ends with E5 and B5 (with muting) played over lyrics "Wrong answer"
Tap to rate this tab
 
# A B C D E F G H I J K L M N O P Q R S T U V W X Y Z