Song name
# A B C D E F G H I J K L M N O P Q R S T U V W X Y Z

Something For Kate - Old Pictures tab

BAND:        Something For Kate
SONG:        Old Pictures



INTRO/VERSE:
------------

e|--------0----------------2-----------4-----------------2--|
B|-----------2-------------2---------5---5---------3--------|
G|-----2----------------2--------------------2--4----4------|
D|--4-----------4--2------------0--------------------------|
A|----------------------------------------------------------|
E|----------------------------------------------------------|



CHORUS:
-------

GUITAR 1
e|--2--0------------0---4-------|
B|--2--0------------0---5-------|
G|--4--2---1--------2---6-------|
D|--4--2---4--------2---6-------|
A|--2--0---2--------0---4-------|
E|---------0--------------------|

GUITAR 2
e|------------------0-----------|
B|------------------0-----------|
G|--4---/---16------2---/---14--|
D|------------------2---/---14--|
A|--2---/---14------0-------0---|
E|------------------------------|



BRIDGE:
-------

e|--0----0----0----2----0--------------|
B|--0----3----0----2----0--------------|
G|--1----2----1----4----1----4--/---6--|
D|--2----0----2----4----2--------------|
A|--2----0----2----2----2----2--/---4--|
E|--0---------0---------0--------------|

Tap to rate this tab
# A B C D E F G H I J K L M N O P Q R S T U V W X Y Z