Song name
# A B C D E F G H I J K L M N O P Q R S T U V W X Y Z

Something For Kate - Manmade Horse tab

BAND:        Something For Kate
SONG:        Manmade Horse


INTRO/VERSE:
------------
 e|------0-----0-----0-----0-----0-----0-----0-----0---|
 B|------0-----0-----0-----0-----0-----0-----0-----0---|
 G|------2-----2-----2-----2-----2-----2-----2-----2---|
 D|------2-----2-----2-----2-----1-----1-----1-----1---|
 A|------x-----x-----x-----x-----x-----x-----x-----x---|
 E|--0-2-2-2-2-2-2-2-2-2-2-2-0-2-2-2-2-2-2-2-2-2-2-2---|



PRE-CHORUS:
-----------
 e|--0----0----0----0----0----0----0----0----1----0--|
 B|--1----3----1----3----1----1----1----3----3----3--|
 G|--2----2----2----2----2----2----0----2----2----2--|
 D|--2----2----2----2----2----0----2----0----0----0--|
 A|--0----0----0----0----0----2----3----0----0----0--|
 E|--------------------------------------------------|



CHORUS:
-------
 e|--3----3----3----3--------------------------------|
 B|--1----1----1----1-----------0--------------------|
 G|--2----0----2----0-----------4-----4--------------|
 D|--3----2----0----2-----------2-----4--------------|
 A|-----------------3-----------0-----6--------------|
 E|-----------------------------------4--------------|



SOLO:
-----
 e|-------------------13-------------------|
 B|-13-13-13-13-13-13----17-13/8--5-6-5----|
 G|----------------------------------------| PLAY
 D|----------------------------------------|  x2
 A|----------------------------------------|
 E|----------------------------------------|

 e|--------------------13---------------------------------5---3----|
 B|--13-13-13-13-13-13-----17--13/8--5-6-5--3-5-3--1-3-1----3------|
 G|-------------------------------------------------------------3--|
 D|----------------------------------------------------------------|
 A|----------------------------------------------------------------|
 E|----------------------------------------------------------------|

Tap to rate this tab
# A B C D E F G H I J K L M N O P Q R S T U V W X Y Z