Song name
# A B C D E F G H I J K L M N O P Q R S T U V W X Y Z

Something For Kate - Light At The End Of The Tunnel tab

standard tuning
Acoustic Guitar (comprised of two chord riffs.  You need to know when to switch riffs 
the times you play them before you switch off.)  I'll get the electric guitar part in the 
later on but the acoustic guitar is the core of this song.

Riff 1
e--3--3-0-2-0-2h3-|
b--3--3-3-3-3-3---|
g--0--0-0-0-0-0---|
d--0--------------|
a--2--------------|
e--3--------------|

Riff 2
e-3--3-0-2-0-2h3-|
b-3--3-3-3-3-3---|
g-0--0-0-0-0-0---|
d-2--------------|
a-2--------------|
e----------------|

at parts of the song, the ending parts change to, so either play it during any parts of 
song or just disregard it.
e-3-0-2-0-2p0-|
b-3-3-3-3-3---|
g-0-0-0-0-0---|
d-------------|
a-------------|
e-------------|
Tap to rate this tab
 
# A B C D E F G H I J K L M N O P Q R S T U V W X Y Z