Song name
# A B C D E F G H I J K L M N O P Q R S T U V W X Y Z

Something For Kate - Survival Expert chords

Highlighted       Show chord diagrams
Played with a capo on the 4th fret. All chords relative to the capo.

Intro:
     Em    Cmaj7
e|---0------0-----|
B|---8------8-----|
G|---9------0-----|
D|---9------10----|
A|---7------7-----|
E|---0------0-----|


The first three chords of the verses descend down the fretboard like so:
     Em     Am     G
e|---0------0------3---------------------------------------------|
B|---8------x------3---------------------------------------------|
G|---9------5------4---------------------------------------------|
D|---9------7------5---------------------------------------------|
A|---7------7------5---------------------------------------------|
E|---0------0------3---------------------------------------------|

The regular inversions of these chords will suffice, however.


Em                  Am
I like the way you survive
            G                                       Em
Just keep blowing at that pretty blue flame thatís burning you alive
     F
Itís time
          Am             Em
Itís just time


|| This chord progression continues for all of the subsequent verses ||


The shifting shorelines hidden hands
Might show you one black feathered wing sticking up from the sand
But youíll still fly
Youíll still fly

So take a camera from the pile
And if it speaks less than a thousand words yeah if it tells a lie
Youíre right
Youíre always right

Before new day arrives
Weíll leave our buried shoeboxes, our capsules filled with time
And come alive
Weíll come to life

Em        Cmaj7
Ooh.

So take a camera from the pile
And if it speaks less than a thousand words yeah if it tells a lie
Youíre right
Youíre always right

Before new day arrives
Weíll leave our buried shoeboxes, our capsules filled with time
And come alive
Weíll come to life

So will you hold your head up
When youíre not even sure where your next moments coming from
Itís you
Itís just you
Tap to rate this tab
# A B C D E F G H I J K L M N O P Q R S T U V W X Y Z