Song name
# A B C D E F G H I J K L M N O P Q R S T U V W X Y Z

Something For Kate - Truly tab

Something For Kate - Truly
(Hazel Cover)

Tuning: Standard
Capo 4

Tabbed by Richard Walsh
(based on tabs by Ben Cas, Craig Jorgenson, Katy Fletcher, and Jarrod Matchett)


INTRO:(Semi-Palm Muted)

    Asus2   Em      G       F
e|--0--0----0--0----0--0----0--0----|x4
b|--0--0----0--0----0--0----0--0----|
G|--2--2p0--0--0----0--0----0--0----|
D|--2--2p0--2--2p0--0--0----0--0----|
A|--0--0----2--2----2--2----3--3----|
E|----------0--0----3--3p0--1--1p0--|

     A  Asus4     A  Asus2 G   F
e|----0---0---0---0---0----0---0--|x4
b|----2---3---3---2---0----0---0--|
G|----2---2---2---2---2----0---0--|
D|----2---2---2---2---2----0---0--|
A|--0-----0---0---0---0----2---0--|
E|-------------------------3---1--|


VERSE/CHORUS:

    Am      Em      G       F
e|--0--0----0--0----0--0----0--0----|
b|--1--1p0--0--0----0--0----0--0----|
G|--2--2----0--0----0--0----0--0----|
D|--2--2----2--2p0--0--0----0--0----|
A|--0--0----2--2----2--2----3--3----|
E|----------0--0----3--3p0--1--1p0--|
(repeat as needed)


it/there must be something in the air she said
that makes it so square when we get together
feels like snakes in my hair
and it feels all wrong somehow
by the wall I fell well maybe next year
iíll fall
i donít care
cause for alarm you know I mean it so
you know I mean it so
you know I mean it so

so
truly, truly, truly, truly
truly, truly, truly, oh-oh


BRIDGE:

     A  Asus4     A  Asus2 G   F
e|----0---0---0---0---0----0---0--|x3
b|----2---3---3---2---0----0---0--|
G|----2---2---2---2---2----0---0--|
D|----2---2---2---2---2----0---0--|
A|--0-----0---0---0---0----2---0--|
E|-------------------------3---1--|

     A  Asus4     A  Asus2 G   F
e|----0---0---0---0---0----0---0--|
b|----2---3---3---2---0----0---0--|
G|----2---2---2---2---2----4---2--|
D|----2---2---2---2---2----5---3--|
A|--0-----0---0---0---0----5---3--|
E|-------------------------3---1--|

(Repeat VERSE/CHORUS/BRIDGE as needed)
[Some are palm muted, some are loud and bass heavy]


OUTRO:

     A  Asus4     A  Asus2 G   F
e|----0---0---0---0---0----0---0--|x3
b|----2---3---3---2---0----0---0--|
G|----2---2---2---2---2----0---0--|
D|----2---2---2---2---2----0---0--|
A|--0-----0---0---0---0----2---0--|
E|-------------------------3---1--|

     A  Asus4     A  Asus2 G   F  Am
e|----0---0---0---0---0----0---0---0~--|
b|----2---3---3---2---0----0---0---1~--|
G|----2---2---2---2---2----4---2---2~--|
D|----2---2---2---2---2----5---3---2~--|
A|--0-----0---0---0---0----5---3---0~--|
E|-------------------------3---1-------|

Tap to rate this tab
# A B C D E F G H I J K L M N O P Q R S T U V W X Y Z