Song name
# A B C D E F G H I J K L M N O P Q R S T U V W X Y Z

Something For Kate - White Acoustic tab

Something For Kate - White (Acoustic)
(Tabbed by R.Walsh)

http://youtu.be/dwChcFWi5Rk

Capo 4 - Standard

CHORDS:
    VERSE/INTRO:

   Em  Em/A  Em/B  Em/E
e|-0----0-----0-----0---|
b|-8----8-----8-----8---|
G|-9----9-----9-----9---|
D|-9----9-----9-----9---|
A|-7----0-----x-----x---|
E|------------7-----0---|


    CHORUS:

   Em  Dsus2   C
e|-0----0------0--|
b|-0----3------3--|
G|-0----2------0--|
D|-2----0------2--|
A|-2-----------3--|
E|-0--------------|

Picked part:

  G             A             B             C
e|-------------|-------------|-------------|-------------|
b|-------------|-------------|-------------|-------------|
G|---4-2-0---0-|---4-2-0---0-|---4-2-0---0-|---4-2-0---0-|
D|---------4---|---------4---|---------4---|---------4---|
A|-------------|-0-----------|-2-----------|-3-----------|
E|-3-----------|-------------|-------------|-------------|





INTRO:

Em  x8

VERSE:

Em           Em/A    Em/B   Em/E
You think of white

Em           Em/A    Em/B   Em/E
Somewhere outside

Em           Em/A          Em/B   Em/E
Somehow connected to your brain

Em           Em/A    Em/B        Em/E
Or about to knock on your door


CHORUS:

Dsus2  C
Infinity

Dsus2    Em
Is a reality


G     A       B     C
Magnetism and mystery

G   A        B     C
Unicorns and fantasy

  G                A
I hope that you're not

B          C
Hoping for me

C
                   Em
e|-0------0---0----0--|
b|-3--3p0-0---0----0--|
G|-0------0---0----0--|
D|-0------0---0h2--2--|
A|-2------2---0h2--2--|
E|-0------0---0----0--|


VERSE:

Em           Em/A    Em/B   Em/E
You think of sight

Em           Em/A    Em/B   Em/E
And reason collides

Em           Em/A         Em/B   Em/E
Somehow transmitting from space

       Em          Em/A             Em/B   Em/E
Asking you to line up and take your place



CHORUS:

Dsus2   C
Eternity

Dsus2   Em
Is a policy


G    A           B      C
Life jackets and sympathy

G   A    B  C
Bullshit daydreams

   G       A        B           C
I know you can't be knowing for me

      G                A
And I hope that you're not

B          C
Hoping for me


e|-0--0--0--0--0--|
b|-3--3--1--0--0--|
G|-0--0--0--0--0--|
D|-2-----------2--|
A|-3-----------2--|
E|-------------0--|



Tap to rate this tab
# A B C D E F G H I J K L M N O P Q R S T U V W X Y Z