Song name
# A B C D E F G H I J K L M N O P Q R S T U V W X Y Z

Something For Kate - Three Dimensions tab

BAND:        Something For Kate
SONG:        Three Dimensions
ALBUM:       Echolalia


INTRO/VERSE:
------------

e|-----------------|
B|--6--5--1--3--5--|
G|--x--x--x--x--x--|
D|--7--5--2--3--5--|
A|--5--3--0--1--3--|
E|-----------------|

e|----------------------------|
B|--6--5--10--8---5--5--6--8--|
G|--x--x--x---x---x--x--x--x--|
D|--7--5--10--8---7--7--7--7--|
A|--5--3----------------------|
E|----------------------------|



CHORUS:
-------

e|--3----3---1-(0)------|
B|--3----3---1----------|
G|--0----0---2----------| PLAY
D|--0----2---3----------|  x4
A|--x----2---3----------|
E|--3----0---1-(x)------|

e|-----------------|
B|--3--------------|
G|--3--------------|
D|--3--------------|
A|--1--------------|
E|-----------------|



POST-CHORUS: - Guitar 1 plays intro/verse riff.
------------

e|-------------------------------------|
B|-------------------------------------|
G|-------------------------------------| PLAY
D|-------------------------------------|  x2
A|-7p5--7p5--7/12~---7p5�7p5�7/12�7~--|
E|-------------------------------------|



BRIDGE:
-------

e|------------0----1----|
B|------------5----1----|
G|---2----5---4----2----|
D|---2----5---5----3----|
A|---0----0---0----3----|
E|-----------------1----|



FINAL PRE-CHORUS:
-----------------

e|---------------------------------------7-------------|
B|------------10-h-12-----------8---10------10---------|
G|------------------------------7-----------10---------|
D|--------12----------12--------9-----------10---------|
A|---10-------------------10----7-----------8----------|
E|-----------------------------------------------------|



Tap to rate this tab
# A B C D E F G H I J K L M N O P Q R S T U V W X Y Z