Guitaretab - guitar tabs
Song name
# A B C D E F G H I J K L M N O P Q R S T U V W X Y Z

Something For Kate - Cigarettes And Suitcases tab

-----------------------------------------------------------------------------------------
CIGARETTES AND SUITCASES  Something for Kate
-----------------------------------------------------------------------------------------
Tabbed by: Masterblaster

Email: kellis1111@hotmail.com 

Hey guys,
         No one has tabbed any of the Something for Kate
 songs from the new album, or any other album part from 
one for that matter, so I thought Id start with this one.
Its mostly correct not sure though so feel free to give 
comment if you want to add something. 

Tuning: Standard

Verse 1

e|-----4---5-4-----------4---5-5-4-|
B|---5---5-------5-----5---5-------|
G|-6-----------6-----5-------------|X4
D|---------------------------------|
A|---------------------------------|
E|---------------------------------|
 
   maybe maybe nothing could prepare you
  but that something and that someday always comes
  and the only thing around worth hanging onto
  is a love of twisted symmetry demanding it be done


Pre Verse

e|-----4---5-4----------4---2-2-0------0---2-0---0------0---2-0---0-|
B|---5---5-------5----5---5----------0---0-----2------0---0-----2---|
G|-4-----------4----3--------------2----------------2---------------|
D|------------------------------------------------------------------|
A|------------------------------------------------------------------|
E|------------------------------------------------------------------|
               this way                             ahh ahh ahh 
 

e|-----4---5-4----------4---2-2-0--4-4-4-4-4-4-4-4--4-4-4-4-4-4-4-|
B|---5---5-------5----5---5--------5-5-5-5-5-5-5-5--5-5-5-5-5-5-5-|
G|-4-----------4----3--------------6-6-6-6-6-6-6-6--5-5-5-5-5-5-5-|
D|----------------------------------------------------------------|
A|----------------------------------------------------------------|
E|----------------------------------------------------------------|
	      This way 	       ahh________________________________


Chorus

       E		    Bm
you're always the last to know
     A              Am
your cigarettes and suitcases
      E		     Bm
and so on the story goes
       A                     Am
you're shell-shocked in your shoelaces
    E                       Bm
and now that you're on your own..


Fill

e|-----4---5-4-----------4----5-4-12------4---5-4-----4---------|
B|---5---5-------5-----5---5------------5---5-------5-----------|
G|-6-----------6-----5----------------6-----------5-------------|
D|------------------------------------------------------6-5-4-2-|
A|--------------------------------------------------------------|
E|--------------------------------------------------------------|


Verse 2

e|-----4---5-4-----------4---5-5-4-|
B|---5---5-------5-----5---5-------|
G|-6-----------6-----5-------------|X4
D|---------------------------------|
A|---------------------------------|
E|---------------------------------|

   and it won't be so far away tomorrow
   everybody says cause everybody knows
   all one by one in single file we follow
   paying out the drop like dominoes


Pre Verse
[ Tab from: http://www.guitaretab.com/s/something-for-kate/81789.html ]
e|-----4---5-4----------4---2-2-0------0---2-0---0------0---2-0---0-|
B|---5---5-------5----5---5----------0---0-----2------0---0-----2---|
G|-4-----------4----3--------------2----------------2---------------|
D|------------------------------------------------------------------|
A|------------------------------------------------------------------|
E|------------------------------------------------------------------|
               today                                ahh ahh ahh 
 

e|-----4---5-4----------4---2-2-0--4-4-4-4-4-4-4-4--4-4-4-4-4-4-4-|
B|---5---5-------5----5---5--------5-5-5-5-5-5-5-5--5-5-5-5-5-5-5-|
G|-4-----------4----3--------------6-6-6-6-6-6-6-6--5-5-5-5-5-5-5-|
D|----------------------------------------------------------------|
A|----------------------------------------------------------------|
E|----------------------------------------------------------------|
	      today_____________________________________________	       


Chorus

       E                  Bm
you're always the last to know
     A              Am
your cigarettes and suitcases
    E               Bm
and so on the story goes
       A                     Am
you're sweet dreams and your sci-fi sunsets
    E			     Bm
and now that you're on your own (now that you're on your own)
A                       Am
now that you're on your own
F#m 		      A
Where are you gonna go?


Solo
   E              	        Bm                      A      	
e|-------------------------------------------------------------------------|
B|-12-12-12-12-12-14-14-14-15-15-15-15-15-14-14-14-10-10-10-10-10-12-12-12-|
G|-------------------------------------------------------------------------|
D|-------------------------------------------------------------------------|
A|-------------------------------------------------------------------------|
E|-------------------------------------------------------------------------|
 
  Am
e|-------------------------|
B|-14-14-14-14-14-12-12-12-|
G|-------------------------| X2
D|-------------------------|
A|-------------------------|
E|-------------------------|



Bridge

e|-----4-5-4----------4-5-4----------4-5-4---------------------|
B|-5-7-------3-2--5-7-------2-0--5-7-------3-2-----0---1-1-1-1-|
G|---------------------------------------------1-2---2---------|
D|-------------------------------------------------------------|
A|-------------------------------------------------------------|
E|-------------------------------------------------------------|
  And so on the story goes
  And so on the story goes
  And so on the story goes


Chorus

            E                  Bm
you're always the last to know
     A                   Am 
your cigarettes and your suitcases
    E             Bm
and on and on you go
       A                     Am
you're shell-shocked in your shoelaces
E                       Bm
now that you're on your own
A                       Am
now that you're on your own
E                       Bm            A
now that you're on your own, on your own
         Bm  
on your own, your own, your own


End
 
e|----------------|
B|-----5-7-9-12-9-|
G|-4-6------------|
D|----------------|
A|----------------|
E|----------------|

There you have it. Like all tabs youll have to listen to 
the Cd but this should be a good starting point.

Thanks

| /  slide up
| \  slide down
| h  hammer-on
| p  pull-off
| ~  vibrato
| +  harmonic
| x  Mute note
===============================================================================
Related for Cigarettes And Suitcases tab