Song name
# A B C D E F G H I J K L M N O P Q R S T U V W X Y Z

Something Like Silas - Divine Invitation tab

Something Like Silas - Divine Invitation

the true victory is in surrender

D     000232
A     002220
G     320003
Bm    x24432

4/4
Intro/Verse 1

     D                  G
E  ----2--------2---------3---------3---------|
b  ------3-2-------3-2-------3-2-------3-2----|
g  -------------------------------------------|
d  --0--------0-------------------------------|
a  -------------------------------------------|
e  ---------------------3----------3----------|

Sweet, sweet love of God
We revere Your firelight heart
Sweet, sweet grace surrounds
We've been sought, through all of our years
Youve carried our tears with You

Bm              G           D
        We are all here to find
                      A                      Bm
The place where our restless souls will be free
                G            D
        We were all made to see
                      A                     D
Our hearts could not rest until found in Thee

        A           Bm        G            D
In this divine invitation we find Your embrace
           A        Bm            G              D
And in our deep adoration see the light of Your face
           A        Bm         G            D
In this divine invitation we all find the place
         A               Bm            G
For our souls where the longings were born long ago

(D   A   G   G)x2

 D       A    G
Sweet, sweet Savior come
        D
Near us now
          A             G
Into the depths of our hearts

 D       A    G
Sweet, sweet breath of life
        D
You fulfill
          A
With the warmth of Your love
   G
A mystery of Your ways

Prechorus

Chorus

(D   A   Bm   G)x4

Chorus

Outro
     D        A         G
E  ----2--------2---------3---------3---------|
b  ------3-2-------3-2-------3-2-------3-2----|
g  -------------------------------------------|
d  --0----------------------------------------|
a  -----------0-------------------------------|
e  ---------------------3----------3----------| x2

     D        A         G
E  ----2--------2---------3---------3---------|
b  ------3-2-------3-2-------3-2-------3------|
g  -------------------------------------------|
d  --0----------------------------------------|
a  -----------0-------------------------------|
e  ---------------------3----------3----------|

<3 gio
Tap to rate this tab
 
# A B C D E F G H I J K L M N O P Q R S T U V W X Y Z