Guitaretab - guitar tabs
Song name
# A B C D E F G H I J K L M N O P Q R S T U V W X Y Z

Something Like Silas - I Fall tab

Intro/Verse

Chords
Bm A G
Bm A G
Bm A G F#m G

Tabs
e-----------------------------------------------------------------------------|
b-----------------------------------------------------------------------------|
g----7-----6-----4--------7/9-----6/7------4-------7------6------4-----2----4-|
d--0-----0-----0--------0-------0--------0--------0-----0------0-----0-----0--|
a-----------------------------------------------------------------------------|
E-7----5-----3-----3/7--------5-------3------3/7-----5------3------2-----3----|

Chorus
Bm A G
Bm A G
Bm A G F#m G
[ Tab from: http://www.guitaretab.com/s/something-like-silas/137339.html ]
Guitar Solo during chorus (use Danelectro Overdrive/Distortion)
e-----------------------------------------------------------------------------|
b-----------------------------------------------------------------------------|
g---------------------------------------------------2-------------------------|
d-2-4---2--4---2h4----2--4-----2--4----2--4-----------2--4----2--4----24h5p4-|
a------0------0----------------0--------0-------0--------------0---------0----|
E-----------------------------------------------------------------------------|


Bridge
D A
D/F#  G  F#m G
F#m G

This is an awesome song from an awesome band.
God Bless
Related for I Fall tab