Song name
# A B C D E F G H I J K L M N O P Q R S T U V W X Y Z

Something Like Silas - Words That You Say tab

Words That You Say by Something Like Silas
Tabbed by penguinsryupper

Intro
e|----------------------------------------------|
B|----------------------------------------------|
G|----------------------------------------------|
D|-0-h7----------------10-----------------------|
A|-8------10---7s--8---8----10--7---------------|
E|-6------8----8s--10--10---8---8---------------|

e|----------------------------------------------|
B|----------------------------------------------|
G|----------------------------------------------|
D|-0-h7----------------10-----------------------|
A|-8------10---7s--8---8------10----------------|
E|-6------8----8s--10--10-----8-----------------|

e|----------------------------------------------|
B|----------------------------------------------|
G|----------------------------------------------|
D|-0-h7----------------10-----------------------|
A|-8------10---7s--8---8----10--7---------------|
E|-6------8----8s--10--10---8---8---------------|

e|----------------------------------------------|
B|----------------------------------------------|
G|----------------------------------------------|
D|-0-h7-----------------------------------------|
A|-8------10---7--------------------------------|
E|-6------8----8--------------------------------|


Verse
e|----0-------0----------------------0---------0-------------------|
B|-----------------------------------------------------------------|
G|--0-------0------------------------------------------------------|   x2
D|-----10-----------10------10--------10-------------10------10----|
A|-8-8-----8-8----8---8---8-------8---------8------8---8---8-------|
E|---------------6-6-----6-6----10-10-----10-10---6-6-----6-6------|

The verse isnít exact, but you can use the notes and freestyle it.



Chorus is the same as the Intro
Tap to rate this tab
 
# A B C D E F G H I J K L M N O P Q R S T U V W X Y Z